Tommy Shaw, Free To Love You Tabs, Chords, Lyrics

Tommy Shaw, Free To Love You Tabs, Chords

 SITE MENU
 Request Tabs
 Add/Correct Tabs
 DMCA Policy
 Country Sheet Music
0

BROWSE LYRICS AND TABS BY ARTIST/BAND NAME: SEARCH HERE:
A B C D E F G H I J K L M N O P Q R S T U V W X Y Z #
 

Tommy Shaw - Free To Love You (Bass Tabs)


Tommy Shaw CD
Tommy Shaw Sheet music
Tommy Shaw Posters
standard tuning
11 is first fret

:00 
G|---------------------|
D|---------------------|
A|-5----1----5----1----|
E|---------------------|
 
:14 x4
G|----------------------------|
D|----------------------------|
A|-55-55--55-55--11-11--11-11-|
E|----------------------------|

:43
G|-----------------------------------------------------------|
D|-----------------------------------------------------------|
A|-55-55--55-55--11-11--11-100----55-55--55-55--11-11--11-11-|
E|----------------------------33-----------------------------|

:57
G|----------------------------------------------------------------|
D|----------------------------------------------------------------|
A|---------------5-55--3-1-11----------------3--5--5--5--55---0-3-|
E|-3-33--3-5-55----------------3-33--3-5-55-----------------------|

1:11 
G|--------------------------------------------------------------------------------|
D|--------------------------------------------------------------------------------|
A|-55-55--55-55--11-11--11-11--55-55--55-55--11-11--11-11--55-55--55-55--11-1-0---|
E|------------------------------------------------------------------------------3-|

1:33
G|----------------------------------------------------------------|
D|----------------------------------------------------------------|
A|-5--55----1----5~/12----1----1-------55-55--55-55--11-11--11-11-|
E|-------------------------------5~/0-----------------------------|

1:54
G|---------------------------------------------------------------------------------------|
D|---------------------------------------------------------------------------------------|
A|-55-55--55-55--11-11--11-11--55-55--55-55--11-11--11-100----55-55--55-55--11-11--11-11-|
E|--------------------------------------------------------33-----------------------------|

2:16
G|---------------------------------------------------------------|
D|---------------------------------------------------------------|
A|---------------5-55--111-11----------------3--5--5--5--55--0-3-|
E|-3-33--3-5-55----------------3-33--3-5-55----------------------|

2:30
G|--------------------------------------------------------------------------------|
D|--------------------------------------------------------------------------------|
A|-55-55--55-55--11-11--11-11--55-55--55-55--11-11--11-11--55-55--33-33--11-1-0---|
E|------------------------------------------------------------------------------3-|

2:52
G|-----------------------------------------------------------------------------|
D|---------------------------------------------------------357-----------------|
A|---------------111-11--11-11----------------11-11--11-357--------------------|
E|-55-55--55-55-----------------55-55--55-55--------------------55-55--555-55--|

3:10
G|----------------------------------------------------|
D|----------------------------------------------------|
A|-11-11--10-----33333333-33333333-33333333-3333-3-3--|
E|----------311---------------------------------------|

3:21
G|--------------------------------------------------------------------------------|
D|--------------------------------------------------------------------------------|
A|-55-55--55-55--11-11--11-11--55-55--55-55--11-11--11-11--55-55--33-33--11-1-0---|
E|------------------------------------------------------------------------------3-|

3:42 
G|----------------------------------------------------------------------------------------|
D|------------------------------------------------------------------------------------33--|
A|-55-55--55-55--11-11--11-11--55-55--55-55--11-11--11-110--55-55--55-55--11-11--11--1--5-|
E|----------------------------------------------------------------------------------------|

4:04
G|------------------------------------------------------------------------------------------|
D|------------------------------------------------------------------------------------------|
A|-55-55--55-55--111-11--111-110---55-55--55-55--11-11--11-110--55-55--55-55--11-11--11-110-|
E|------------------------------3-----------------------------------------------------------|

4:25
G|----------------------------------------------------------|
D|----------------------------------------------------------|
A|-55-55--55-55--11-11--11-11--555-55--55-55--11-11--11-1-1-|
E|----------------------------------------------------------|


Shaw Tommy Tabs & ChordsShaw Tommy Lyrics



Shaw Tommy Tabs, Tablatures, Chords, Lyrics

Buy Shaw Tommy CD
Shaw Tommy
Buy Shaw Tommy CD

  1. Shaw Tommy - Are You Ready For Me Bass Tabs
  2. Shaw Tommy - Free To Love You Bass Tabs
  3. Shaw Tommy - Heads Up Bass Tabs
  4. Shaw Tommy - No Such Thing Bass Tabs
  5. Shaw Tommy - Somewhere In The Night Bass Tabs



cowboylyrics.com
All lyrics are property and copyright of their owners. All lyrics provided for educational purposes only.