Tommy Shaw, Heads Up Tabs, Chords, Lyrics

Tommy Shaw, Heads Up Tabs, Chords

 SITE MENU
 Request Tabs
 Add/Correct Tabs
 DMCA Policy
 Country Sheet Music
0

BROWSE LYRICS AND TABS BY ARTIST/BAND NAME: SEARCH HERE:
A B C D E F G H I J K L M N O P Q R S T U V W X Y Z #
 

Tommy Shaw - Heads Up (Bass Tabs)


Tommy Shaw CD
Tommy Shaw Sheet music
Tommy Shaw Posters
standard tuning  

:05  
G|------------------------------------|
D|------------------------------------|
A|-9--7--5--4--9-9-7--7-7--5-5-4--4-4-|
E|------------------------------------|

:12
G|-------------------------------------------------------------------|
D|-------------------------------------------------------------------|
A|-2--2-2--2--2-2-0----------------------------------------------1-1-|
E|-------------------3--3-3--3--3-3-2--0--0-0--0--0-0--5--5-5--5-----|

:26
G|----------------------------------------------------------------|
D|----------------------------------------------------------------|
A|-2--2-2--2--2-2-0----------------------------7----------------1-|
E|-------------------3--3-3--3--3-3-2-0--0-0-----0-0--0/2--2-2----|

:40
G|----------------------------------------------------------------------------------|
D|----------------------------------------------------------------------------------|
A|-2-2--0-2--2-2--0-2--------------------------------------------2-2--0-2--2-2--0-2-|
E|---------------------3-3--2-3--3-3--2-3-2--0-0--0-0--0-0--0-0---------------------|

:55
G|--------------------------------------------------------------------------|
D|--------------------------------------------------------------------------|
A|-2-2--0-2--2-2--0-2--------------------------------------------9--7--5--4-|
E|---------------------3-3--2-3--3-3--2-3-2--0-0--0-0--0-0--0-0-------------|

1:09
G|----------------------------------------------------------------------------------|
D|----------------------------------------------------------------------------------|
A|-2-2--0-2--2-2--0-2--------------------------------------------2-2--0-2--2-2--0-2-|
E|---------------------3-3--2-3--3-3--2-3-2--0-0--0-0--0-0--0-0---------------------|

1:23
G|----------------------------------------------------------------------------------------|
D|----------------------------------------------------------------------------------------|
A|-2-2--0-2--2-2--0-2----------------------------------------------------------------0--2-|
E|---------------------3-3--2-3--3-3--2-3-2--0-0--0-0--0-0--0-0--2-2-2-2-2-2-2-2--2-------|

1:38
G|--------------------------------------------------------------------|
D|--------------------------------------------------------------------|
A|-2--2-2--2--2-2-0-----------------------------------------------1-1-|
E|-------------------3--3-3--3--3-3-2--0--0-0--0--0-0--5--5-5--5------|

1:52
G|--------------------------------------------------------------------|
D|--------------------------------------------------------------------|
A|-2--2-2--2--2-2-0--------------------------------------------9--9-9-|
E|-------------------3--3-3--3--3-3-2--0--0-0--0--0-0--5--5-579-------|

2:06
G|-----------------------------------------------------------------------|
D|-------------------------------------------------------7---------------|
A|---------------------0--2-2--0-2--222--0-2-0---------------5---9-------|
E|-333--2-3--3-3--2-3---------------------------5--5-5---------------3/0-|

2:22-2:32 rest

2:33
G|---------------------------------------------------------------------|
D|-9-9-9-9-9-9-9-9-----------------------------------------------------|
A|------------------------------------2--2-2--2--2-2-0-----------------|
E|------------------3--3-3--3--3-3-5--------------------3--3-3--3--3-3-|

2:46
G|------------------------------------|
D|------------------------------------|
A|--------------------------------1-1-|
E|-5--5-5--5--5-5--5--5-5/7/5--5------|

2:53
G|--------------------------------------------------------------------|
D|--------------------------------------------------------------------|
A|-2--2-2--2--2-2-0-----------------------------------------------1-1-|
E|-------------------3--3-3--3--3-3-2--0--0-0--0--0-0--5--5-5--5------|

3:07
G|----------------------------------------------------------------------|
D|----------------------------------------------------------------------|
A|-2--2-2--2--2-2-0-------------------------------------------------2-2-|
E|-------------------3--3-3--3--3-3-2--0--0-0--0--0-0--5--5-5---575-----|

3:21
G|------------------------------------------------------------------------------------------|
D|------------------------------------------------------------------------------------------|
A|-2--2-2--2--2-2-0---------------------------------------------------------------------5-5-|
E|-------------------3--3-3--3--3-3-2--0--0-0--0--0-0--5--5-5--5--5/7/5--5--5-5--5/7/5------|

3:39
G|---------------------------------------------------------------------------|
D|---------------------------------------------------------------------------|
A|-5--5-5--5--5-5-4-----------------------------------0----------------------|
E|-------------------7--7-7--7--7-7-5--3--3-3--3--3-3----5--5-5---5/7/5--5-5-|

3:54
G|--------------------------------------------------------------4--------|
D|-----------------------------------------------------------------------|
A|-5--5-5--0-5--5-5------------------------------------------------------|
E|-------------------7--7-7--7--7-7-5--3--3-3--3--3-3--5--5-5--5--5--5-5-|

4:08 repeat until end
G|------------------------------------------------------------------------|
D|------------------------------------------------------------------------|
A|-5--5-5--0-5--5-5-4-----------------------------------------------------|
E|---------------------7--7-7--2-7--7-7-5--3--3-3--3--3-3--5--5-5--5--5-5-|


Shaw Tommy Tabs & ChordsShaw Tommy Lyrics



Shaw Tommy Tabs, Tablatures, Chords, Lyrics

Buy Shaw Tommy CD
Shaw Tommy
Buy Shaw Tommy CD

  1. Shaw Tommy - Are You Ready For Me Bass Tabs
  2. Shaw Tommy - Free To Love You Bass Tabs
  3. Shaw Tommy - Heads Up Bass Tabs
  4. Shaw Tommy - No Such Thing Bass Tabs
  5. Shaw Tommy - Somewhere In The Night Bass Tabs



cowboylyrics.com
All lyrics are property and copyright of their owners. All lyrics provided for educational purposes only.