Tommy Shaw, No Such Thing Tabs, Chords, Lyrics

Tommy Shaw, No Such Thing Tabs, Chords

 SITE MENU
 Request Tabs
 Add/Correct Tabs
 DMCA Policy
 Country Sheet Music
0

BROWSE LYRICS AND TABS BY ARTIST/BAND NAME: SEARCH HERE:
A B C D E F G H I J K L M N O P Q R S T U V W X Y Z #
 

Tommy Shaw - No Such Thing (Bass Tabs)


Tommy Shaw CD
Tommy Shaw Sheet music
Tommy Shaw Posters
drop C tuning
CADG

:08 x3
G|--------------------|
D|--------------------|
A|--------------------|
E|-4-4-4/2----2-2-2/0-|

:24 
G|---------------------------------------------------------------------------------------|
D|---------------------------------------------------------------------------------------|
A|---------------------------------------------------------------------------------------|
E|-4-4-4-4-4-4-4-44--4-4-4-4-4-4-4-44--2-2-2-2-2-2-2-2--2-2-2-2-2-2-2-2--0-0-0-0-0-0-0-0-|

:34
G|-------------------------------------------------------------------------|
D|-------------------------------------------------------------------------|
A|-0-0-0-0-0-0-0-0---------------------------------------------------------|
E|------------------4----4-4-4-4-4-4-4-4--4-4-4-4-4-4-4-4--2-2-2-2-2-2-2-2-|

:46
G|------------------------------------------------------|
D|------------------------------------------------------|
A|-----------------------------------0-0-0-0-0-0-0-0----|
E|-2-2-2-2-2-2-2-2--0-0-0-0-0-0-0-0-------------------4-|

:56
G|------------------------------------------------------------------------|
D|------------------------------------------------------------------------|
A|-0-0-0-0-0-0-0-0--0-0-0-0-0-0-0-0--0-2----------------------------------|
E|---------------------------------------4-4-4-4-4-4-4-4--4-4-4-4-4-4-4-4-|

1:04
G|-------------------------------------------------------------------|
D|-------------------------------------------------------------------|
A|-0-0-0-0-0-0-0-0--000-0-0-0-0-0-0-0-------------------0-0-0-0--0-0-|
E|-------------------------------------4-4-4-4-4-4-4-4---------------|

1:12
G|-----------------------------------------------------------------------------------------|
D|-----------------------------------------------------------------------------------------|
A|-----------------------------------------------------------------------------------------|
E|-4-4-4-4-4-4-4-44--4-4-4-4-4-4-4-44--2-2-2-2-2-2-2-2--2-2-2-2-2-2-2-2/4--0-0-0-0-0-0-0-0-|

1:21
G|----------------------------------------------------------------------------------------------|
D|----------------------------------------------------------------------------------------------|
A|-0-0-0-0-0-0-0-0------------------------------------------------------------------------------|
E|------------------4--444-4-4-4-4-4-4-4---4-4-4-4-4-4-4-4--222-2-2-2-2-2-2-2--2-2-2-2-2-2-2-22-|

1:35
G|----------------------------------------------------------------------|
D|----------------------------------------------------------------------|
A|-------------------0-0-0-0-0-0-0-00-----------------------------------|
E|-0-0-0-0-0-0-0-00--------------------4-4-4-4-4-4-4-4--4-4-4-4-4-4-4-4-|

1:43
G|--------------------------------------------------------------------|
D|--------------------------------------------------------------------|
A|---------------------------------0-0-0-0-0-0-0-0--0-0-0-0-0-000-0-0-|
E|-0-0-0-0-0-0-0-0--0-0-0-0-0/5/0-------------------------------------|

1:51
G|------------------------------------------------------------------|
D|------------------------------------------------------------------|
A|--------------------------------------------------0-0-0-0-0-0-0-0-|
E|-0-0-0-0-0-0-0-0--0-0-0-0-0/5/0--4-4-4-4-4-4-4-4------------------|

1:59
G|--------------------------------------------------------------------------------------|
D|--------------------------------------------------------------------------------------|
A|-0-0-0-0-0-0-0-0--0-0-0-0-0-0-0-00----------------------------------------------------|
E|------------------------------------7-7-7-7-7-7-7-7--7-7-7-7-7-7-7-7--5-5-5-5-5-5-5-5-|

2:09
G|----------------------------------------------------|
D|----------------------------------------------------|
A|-------------------0-0-0-0-0-0-0-0--0-0-0-0-0-0-0-0-|
E|-2-2-2-2-2-2-2-22-----------------------------------|

2:15
G|--------------------------------------------------------------------|
D|--------------------------------------------------------------------|
A|--------------------------------------------------------------------|
E|-0-0-0-0-0-0-0-0--0-0-0-0-0-0-0-0--2-2-2-2-2-2-2-2--2-2-2-2-4-2/7/0-|

2:23
G|-----------------------------------------------------------------|
D|-----------------------------------------------------------------|
A|-------------------------------------0-0-0-0-0-0-0-0-------------|
E|-0-0-0-0-0-0-0-0--0-0-0-0-0-0-0-0/7-------------------9--9--9--9-|

2:31
G|-------------------------------------------------------------------------------------|
D|-------------------------------------------------------------------------------------|
A|-------------------------------------------------------------------------------------|
E|-4-4-4-4-4-4-4-4--4-4-4-4-4-4-4-4--2-2-2-2-2-2-2-2--2-2-2-2-2-2-2-2--0-0-0-0-0-0-0-0-|


2:41
G|--------------------------------------------------------------|
D|--------------------------------------------------------------|
A|-0-0-0-0-0-0-0-0----------------------------------------------|
E|------------------4----4-4-4/2----2-2-2/0----4-4-4/2--2-2-2/0-|

3:02
G|-----------------------------------------------------------------------------------------|
D|-----------------------------------------------------------------------------------------|
A|-----------------------------------------------------------------------------------------|
E|-4-4-4-4-4-4-4-44--4-4-4-4-4-4-4-44--2-2-2-2-2-2-2-22--2-2-2-2-2-2-2-2--0-0-0-0-0-0-0-00-|

3:12
G|-----------------------------------------------------------------------------------------|
D|-----------------------------------------------------------------------------------------|
A|-0-0-0-0-0-0-0-00------------------------------------------------------------------------|
E|-------------------4-4-4-4-4-4-4-4--4-4-4/7-4-4-4/7--4-4-4-4-4-4-4-4--4-4-4-4-4-4/7-7/14-|

3:22
G|--------------------------------------------------------------------|
D|--------------------------------------------------------------------|
A|----------------------------------------------------0-0-0-0-0-0-0-0-|
E|-2-2-2-2-2-2-2-2--2-2-2-2-2-2-2-2--0-0-0-0-0-0-0-0------------------|

3:30
G|---------------------------------------------------------------------|
D|---------------------------------------------------------------------|
A|---------------------------------------------------------------------|
E|-4-4-4-4-4-4-4-4--4-4-4-4-4-4-4-4--4-4-4-4-4-4-4-44--4-4-4-4-4-4-4-4-|

3:42
G|-----------------------------------------------------------------------|
D|-----------------------------------------------------------------------|
A|-------------------0-0-0-0-0-0-0-00------------------------------------|
E|-2-2-2-2-2-2-2-22--------------------4-4-4-4-4-4-4-4--4-4-4-4-4/7-7/14-|


Shaw Tommy Tabs & ChordsShaw Tommy Lyrics



Shaw Tommy Tabs, Tablatures, Chords, Lyrics

Buy Shaw Tommy CD
Shaw Tommy
Buy Shaw Tommy CD

  1. Shaw Tommy - Are You Ready For Me Bass Tabs
  2. Shaw Tommy - Free To Love You Bass Tabs
  3. Shaw Tommy - Heads Up Bass Tabs
  4. Shaw Tommy - No Such Thing Bass Tabs
  5. Shaw Tommy - Somewhere In The Night Bass Tabs



cowboylyrics.com
All lyrics are property and copyright of their owners. All lyrics provided for educational purposes only.