Tommy Shaw, Somewhere In The Night Tabs, Chords, Lyrics

Tommy Shaw, Somewhere In The Night Tabs, Chords

 SITE MENU
 Request Tabs
 Add/Correct Tabs
 DMCA Policy
 Country Sheet Music
0

BROWSE LYRICS AND TABS BY ARTIST/BAND NAME: SEARCH HERE:
A B C D E F G H I J K L M N O P Q R S T U V W X Y Z #
 

Tommy Shaw - Somewhere In The Night (Bass Tabs)


Tommy Shaw CD
Tommy Shaw Sheet music
Tommy Shaw Posters
drop C tuning
CADG

:03
G|-----------------------------------------------|
D|-----------------------------------------------|
A|-----------------------------------------------|
E|-00-0---5-7-----00-0----0----00-0---5-7-----00-| 

:20 
G|-------------------------------------------------------------------------|
D|-------------------------------------------------------------------------|
A|----------------------------------------------------------------------7~-|
E|-1-1-1-1-1-1-1-1--3-3-3-3-3-3-3-33--1-1-1-1-1-1-1-11--3-3-3-3-3-3-3-3----|

:30
G|-------------------------------------------------------------------------|
D|-------------------------------------------------------------------------|
A|----------------------------------------------------------------------7~-|
E|-1-1-1-1-1-1-1-11--3-3-3-3-3-3-3-3--1-1-1-1-1-1-1-11--3-3-3-3-3-3-3-3----|

:40
G|--------------------------------------------------------------------------|
D|--------------------------------------------------------------------------|
A|-----------------------------------------------------------------------7~-|
E|-11-1-1-1-1-1-1-11--3-3-3-3-3-3-3-3--1-1-1-1-1-1-1-11--3-3-3-3-3-3-3-3----|

:50
G|--------------------------------------------------------------------------|
D|--------------------------------------------------------------------------|
A|-----------------------------------------------------------------------4~-|
E|-11-1-1-1-1-1-1-11--3-3-3-3-3-3-3-3--00-0-0-0-0-0-0-0--0-0-0-0-0-0-0-0----|

1:01 
G|---------------------------------------------------------------------------|
D|---------------------------------------------------------------------------|
A|------------------------------------------------------------------------7~-|
E|-11-1-1-1-1-1-1-11--3-3-3-3-3-3-3-33--1-1-1-1-1-1-1-11--3-3-3-3-3-3-3-3----|

1:11
G|--------------------------------------------------------------------------|
D|--------------------------------------------------------------------------|
A|-----------------------------------------------------------------------4~-|
E|-11-1-1-1-1-1-1-11--3-3-3-3-3-3-3-33--0-0-0-0-0-0-0-0--0-0-0-0-0-0-0-0----|

1:21
G|-----------------------------------------------------------------------|
D|-----------------------------------------------------------------------|
A|-2-2-2-2-2-2-2-22--2-2-2-2-2-2-2-22--0-0-0-0-0-0-0-00--0-0-0-0-0-0-0-0-|
E|-----------------------------------------------------------------------|

1:31
G|-----------------------------------------------------------------------|
D|-----------------------------------------------------------------------|
A|-2-2-2-2-2-2-2-22--2-2-2-2-2-2-2-22--0-0-0-0-0-0-0-00------------------|
E|-------------------------------------------------------6-6-6-6-6-6-6-6-|

1:41
G|---------------------------------------------------------------------|
D|---------------------------------------------------------------------|
A|---------------------------------------------------------------------|
E|-5-5-5-5-5-5-5-5--5-5-5-5-5-5-5-5--3-3-3-3-3-3-3-3--3-3-3-3-3-3-3-33-|

1:51 
G|-------------------------------------------------------------------|
D|-------------------------------------------------------------------|
A|-------------------------------------------------------------------|
E|-5-5-5-5-5-5-5-55--5-5-5-5-5-5-5-55--3-3-3-3-3-3-3-33--3-3-3-3/8/3-|


2:01
G|-------------------------------------------------------------------------|
D|-------------------------------------------------------------------------|
A|-------------------------------------------------------------------------|
E|-5-5-5-5-5-5-5-55--5-5-5-5-5-5-5-55--3-3-3-3-3-3-3-33--1-1-1-1-1-1-1-1-0-|

2:14
G|-----------------|
D|-----------------|
A|-----------------|
E|-00-0---5-7---00-| 

2:21
G|--------------------------------------------------------------------------|
D|--------------------------------------------------------------------------|
A|-----------------------------------------------------------------------7~-|
E|-1-1-1-1-1-1-1-11--3-3-3-3-3-3-3-33--1-1-1-1-1-1-1-11--3-3-3-3-3-3-3-3----|

2:31 
G|--------------------------------------------------------------------------|
D|--------------------------------------------------------------------------|
A|--------------------------------------------------------------------------|
E|-11-1-1-1-1-1-1-11--3-3-3-3-3-3-3-3--0-0-0-0-0-0-0-0--0-0-0-0-0-0-0-3h1h3-|

2:41
G|--------------------------------------------------------------------------|
D|--------------------------------------------------------------------------|
A|-----------------------------------------------------------------------7~-|
E|-11-1-1-1-1-1-1-11--3-3-3-3-3-3-3-3--1-1-1-1-1-1-1-11--3-3-3-3-3-3-3-3----|

2:51
G|---------------------------------------------------------------------------|
D|---------------------------------------------------------------------------|
A|---------------------------------------------------------------------------|
E|-11-1-1-1-1-1-1-11--3-3-3-3-3-3-3-33--0-0-0-0-0-0-0-3h1h3--0-0-0-0-0-0-0-0-|

3:01
G|------------------------------------------------------------------------|
D|------------------------------------------------------------------------|
A|-2-2-2-2-2-2-2-22--2-2-2-2-2-2-2-22--0-0-0-0-0-0-0-0--0-0-0-0-0-0-0-0-2~|
E|------------------------------------------------------------------------|


3:11
G|-----------------------------------------------------------------------|
D|-----------------------------------------------------------------------|
A|-2-2-2-2-2-2-2-22--2-2-2-2-2-2-2-22--0-0-0-0-0-0-0-00------------------|
E|-------------------------------------------------------6-6-6-6-6-6-6-6-|

3:21
G|---------------------------------------------------------------------|
D|---------------------------------------------------------------------|
A|---------------------------------------------------------------------|
E|-5-5-5-5-5-5-5-5--5-5-5-5-5-5-5-5--3-3-3-3-3-3-3-3--3-3-3-3-3-3-3-33-|

3:31
G|-------------------------------------------------------------------|
D|-------------------------------------------------------------------|
A|-------------------------------------------------------------------|
E|-5-5-5-5-5-5-5-55--5-5-5-5-5-5-5-55--3-3-3-3-3-3-3-33--3-3-3-3/8/3-|

3:42
G|-------------------------------------------------------------------------|
D|-------------------------------------------------------------------------|
A|-------------------------------------------------------------------------|
E|-5-5-5-5-5-5-5-55--5-5-5-5-5-5-5-55--3-3-3-3-3-3-3-33--1-1-1-1-1-1-1-1-0-|

3:55 repeat until end
G|---------------------------|
D|---------------------------|
A|---------------------------|
E|-00-0---3h5-----00-0---5-7-|


Shaw Tommy Tabs & ChordsShaw Tommy Lyrics



Shaw Tommy Tabs, Tablatures, Chords, Lyrics

Buy Shaw Tommy CD
Shaw Tommy
Buy Shaw Tommy CD

  1. Shaw Tommy - Are You Ready For Me Bass Tabs
  2. Shaw Tommy - Free To Love You Bass Tabs
  3. Shaw Tommy - Heads Up Bass Tabs
  4. Shaw Tommy - No Such Thing Bass Tabs
  5. Shaw Tommy - Somewhere In The Night Bass Tabs



cowboylyrics.com
All lyrics are property and copyright of their owners. All lyrics provided for educational purposes only.