, Say It Tabs, Chords, Lyrics

, Say It Tabs, Chords

 SITE MENU
 Request Tabs
 Add/Correct Tabs
 DMCA Policy
 Country Sheet Music
0

BROWSE LYRICS AND TABS BY ARTIST/BAND NAME: SEARCH HERE:
A B C D E F G H I J K L M N O P Q R S T U V W X Y Z #
 

- Say It (Chords)


CD
 Sheet music
Posters
This is the newest single "Say It" by Six Market Blvd. This is my first tab submission so I hope you enjoy it! I just added Chords and lyrics too.
Intro: (play twice then hit A chord and let it ring out.
e|------------------------------------------------------------------------------------------|
b|------------------------------------------------------------------------------------------|
g|-------7s9s7p5---7p5--------------------------7s9s7p5---7p5------------7---5--------------|
D|----------------------7p5---5h7--7---------------------------7p5-------7---5--------------|
A|------------------------------------------------------------------------------------------|
E|------------------------------------------------------------------------------------------|

e|------------------------------------------------------------------------------------------|
b|------------------------------------------------------------------------------------------|
g|-------7s9s7p5---7p5-----------------------5----------7----7-5----------------------------|
D|----------------------7p5---5h7--7---------5----------7----7-5----------------------------|
A|------------------------------------5h6h7------7h8h9--------------------------------------|
E|------------------------------------------------------------------------------------------|
Verse 1:
A
Say you miss me, say you miss me darlin'
                    D                 G                   A  
Say that there is nothin' in this world that'll cut you wrong

And say you need me, say you need me honey
                     D                G                A
It ain't about the money, It's about how we can get along.

Chorus:
                 Em                        G                      A
Cuz I've been spinnin my wheels wonderin' how I can do things right.
               Em                  G              A
And I've been out here on this highway for some time.

So come on say it.

Solo 1: (play verse chords during solo)

Verse 2:
          A
So come say it, you gotta make me believe it
                            D                    G                      A
Don't make me think your leavin', cuz there's another one standin' in line

Woah and come on just say it already, you gotta show me you mean it
                      D                  G                   A
Get in my face and scream it, cuz this river's 'bout to run dry.

Chorus

Solo 2: play A chord several times then 
e|---------------------------------------|
b|---------------------------------------|
g|----------5------------7----7-5--------|
D|----------5------------7----7-5--------|
A|---5h6h7-------7h8h9-------------------|
E|---------------------------------------|


Chorus:
                Em                          G                     A  
Cuz I've been spinnin my wheels wonderin' how I could do things right.
                Em                G               A  
And I've been strung out on this highway for some time.
                Em                     G                      A
So think of somethin' cuz what you've got's about to pass you by
                  Em               G                          A       
And there won't be no one here no more to sit and watch you cry

So come on say it.

Play intro a couple more times with slight variations if you want.
And that's all folks! Enjoy!This is my first tab so give me feedback!


Six Market Blvd. Tabs & Chords



Six Market Blvd. Tabs, Tablatures, Chords, Lyrics

Buy Six Market Blvd. CD
Six Market Blvd.
Buy Six Market Blvd. CD

  1. Six Market Blvd. - A Feelin Chords
  2. Six Market Blvd. - Man Alive Chords
  3. Six Market Blvd. - Say It Chords
  4. Six Market Blvd. - Silence In Me Chords



cowboylyrics.com
All lyrics are property and copyright of their owners. All lyrics provided for educational purposes only.