Corey Smith, As Angels Cry Tabs, Chords, Lyrics

Corey Smith, As Angels Cry Tabs, Chords

 SITE MENU
 Request Tabs
 Add/Correct Tabs
 DMCA Policy
 Country Sheet Music
0

BROWSE LYRICS AND TABS BY ARTIST/BAND NAME: SEARCH HERE:
A B C D E F G H I J K L M N O P Q R S T U V W X Y Z #
 

Corey Smith - As Angels Cry (Chords)


Corey Smith CD
Corey Smith Sheet music
Corey Smith Posters
#-----------------------------------PLEASE NOTE---------------------------------#
# This file is the author's own work and represents their interpretation of the #
# song. You may only use this file for private study, scholarship, or research. #
#-------------------------------------------------------------------------------#
This is a beautiful song and the tab is 99% accurate, i think. 

Tuning: standard

Intro
e|-----------------------------------------|
B|---3------------------3------------------|
G|------2-----2---------2-----repeat 4x----|
D|---------0--------0---0------------------|
A|-----------------------------------------|
E|---------------3-------------------------|

Verses 
e|-----------------------------------------------------------|
B|-----------------------------------------------------------|
G|------2--------2----------------2----------2---------------|
D|------------------0-----0---------------------0-----0------|
A|---2-----0--0--------0-------------0h2--2--------2---------|
E|---------------------------2h3-----------------------------|

Prechorus ("by the chain...")
e|------------------------------------------|
B|----------3--------2-----2---------2------|
G|----------2--------2-----2---------2------|
D|------0---0------------0h2-------0h2------|
A|---------------0-------------0-----0------|
E|---3------3-------------------------------|

Chorus (hammer at will)
e|---2--------------------|
B|---3----2----3----3-----|
G|---2----2----4----2-----|
D|---0----2----4----0-----|
A|--------0----2----------|
E|------------------3-----|
     D    A    Bm   G


Smith Corey Tabs & ChordsSmith Corey Lyrics



Smith Corey Tabs, Tablatures, Chords, Lyrics

Buy Smith Corey CD
Smith Corey
Buy Smith Corey CD

  1. Smith Corey - A Better Place Chords
  2. Smith Corey - Ain't Going Out Tonight Chords
  3. Smith Corey - As Angels Cry Chords
  4. Smith Corey - Be The Change Chords
  5. Smith Corey - Bottle Chords
  6. Smith Corey - Broken Record Chords
  7. Smith Corey - Carolina Chords
  8. Smith Corey - Cherokee Rose Chords
  9. Smith Corey - Drinkin' Again Chords
  10. Smith Corey - Every Dawg Chords
  11. Smith Corey - F**k The Popo Tabs
  12. Smith Corey - First Dance Chords
  13. Smith Corey - From A Distance Chords
  14. Smith Corey - Good Life Chords
  15. Smith Corey - Happy Ever After Chords
  16. Smith Corey - Hard Headed Fool Chords
  17. Smith Corey - I Can't Help Myself Chords
  18. Smith Corey - I'm No Hank Williams Chords
  19. Smith Corey - I'm Not Gonna Cry Chords
  20. Smith Corey - If I Could Do It Again Chords
  21. Smith Corey - If That's Country Chords
  22. Smith Corey - Im Drinking Again Chords
  23. Smith Corey - Im Not Gonna Cry Chords
  24. Smith Corey - In Love With A Memory Chords
  25. Smith Corey - In The Mood Chords
  26. Smith Corey - It's Over Chords
  27. Smith Corey - Keeping Up With The Joneses Chords
  28. Smith Corey - Leaving An Angel Chords
  29. Smith Corey - Let Me Love You On A Backroad (the Roadhead Song) Chords
  30. Smith Corey - Long Way To Go Chords
  31. Smith Corey - Maybe Next Year Chords
  32. Smith Corey - Next Year Chords
  33. Smith Corey - Redneck In Me Chords
  34. Smith Corey - Stand Our Ground Chords
  35. Smith Corey - Sweet Little Boy Chords
  36. Smith Corey - Technology Chords
  37. Smith Corey - Twenty-one Chords
  38. Smith Corey - What Happened Chords
  39. Smith Corey - When The Sun Goes Down In Georgia Chords
  40. Smith Corey - Wheres The Love Chords
  41. Smith Corey - Wreckage Chords



cowboylyrics.com
All lyrics are property and copyright of their owners. All lyrics provided for educational purposes only.