Soggy Bottom Boys, Hard Time Killing Floor Blues Tabs, Chords, Lyrics

Soggy Bottom Boys, Hard Time Killing Floor Blues Tabs, Chords

 SITE MENU
 Request Tabs
 Add/Correct Tabs
 DMCA Policy
 Country Sheet Music
0

BROWSE LYRICS AND TABS BY ARTIST/BAND NAME: SEARCH HERE:
A B C D E F G H I J K L M N O P Q R S T U V W X Y Z #
 

Soggy Bottom Boys - Hard Time Killing Floor Blues (Chords)


Soggy Bottom Boys CD
Soggy Bottom Boys Sheet music
Soggy Bottom Boys Posters
HARD TIME KILLING FLOOR BLUES
BY CHRIS THOMAS KING

GUITAR TUNING Dm (LOW TO HIGH) D-A-D-F-A-D
  ************CHORDS USED**************
   Dm7       XX0211     Am      X0221X
   Dm7F      XX3211     Dm      XX0231 
   F/C       X33211     D       XX0232
   D7sus4    XX0213     Am(add4)X02230 
   G7(NO 3rd)3X0031     F6/9    XX2133
   D5        XX023X                   
  *************************************


  Dm7                      Am          F          Dm      F/C            Dm
                                   1. Hard time here and every where you go
e :-----------------|---0-------------|-0---------------|-----0-----------|
B :-0-0-0-0-0-0-0-0-|-3--3--3--0-0-0--|-0---0--0---0----|-----0--0-0-0-0--|
G :-0-0-0-0-0-0-0-0-|-4---4-4--0-0-0--|-----0--0---0----|--------0-0-0-0--|
D :-3-0-2-0-------0-|--------------0--|-3---0-----------|-----3--0--------|
A :---------3-0-2---|-------0--0-2----|--------3-----0--|--------------0--|
E :-----------------|-0---------------|-----------------|----------0-3----|

  F         Dm             F        D   D7sus4     D/A
1. hell is hotter than it been before
e :-----------------|-----------------|-0---------------------------------|
B :-0------0----0---|----0------------|-0--0----------------0-2/0---------|
G :-0------0----0---|----0-2/1---2/4/2|-2--2/1------2/1-------------------|
D :--------0--------|----------0------|---------0-------0-----------------|
A :-3---------------|-----------------|-3---------0-------0---------------|
E :---------------0-|----3------0-----|-----------------------------------|

  Am(add4)    Dm       F         Dm   F/C        Dm
              and the people are driftin         from door to door
e :-0-0-----0-------|-0------------------------|-0------------------------|
B :-3---3---3-0-0-0-|-0-----------0-0-----0----|-0-------------0--0---0---|
G :-4-----4-4-0-0-0-|-------------0-0-----0----|---------------0--0---0---|
D :---------------0-|-3-----------0------------|-3-------------0----------|
A :-0-------0-0-2---|---------------3---3----0-|----------------------0---|
E :-----------------|--------------------------|------------------0-3-----|

  F/C               G7(no3rd)             F          D          F6/9  D/A
      can't find no heaven I dont care  where  they go          Mm.. hmm..
e :----------------------------------|----------------------|0------------|
B :-0------------0---------------0---|-0--------------------|0------------|
G :-0------------0---------------0---|-0-----2/1-----2/4/2--|2-2/1---242--|
D :----------------------------------|-----------0----------|-----0-------|
A :-3-------3-------0----------------|----------------------|------0------|
E :-------------------5------5-----0-|-3-----------0------0-|3-----------0|

   F6/9     D/A         F6/9    D/A       F6/9      D    Dm
    mm..    hmm..       mm..    hmm..     hmmm.......
e :-0-----------------|-0---------------|-0-------------------------------|
B :-0-----------------|-0---------------|-0--------------0--0---0---------|
G :-2--2/1-----2/4/2--|-2-2/1----2/4/2--|-2----2/1-------0--0---0---------|
D :--------0----------|-------0---------|----------0------------0---------|
A :----------0--------|--------0--------|----------------0--2-------------|
E :-3----------------0|-3--------------0|-3----------0--------------------|


VERSE 2
   F           Dm  F/C   Dm
   say you had mon -ey   you better be sure

   F/C                 G7(no3rd)           F         D
   in these hard times will drive you from door to door

   F6/9  D/A     F6/9  D/A    F6/9 D/A  F6/9   D Dm
   Mm... hmm...   mm.. hmm..  mm.. hmm  hmmm......  
   

   Dm    F/C             D5             F      G7(no3rd)  F        D   
e :-0---------------|-----------------|-----------------|-----------------|
B :-0----0----------|-0---0--0----0---|-0--0--0--0-0--0-|-0---------------|
G :------0----------|-----------------|-0--0--0--0-0--0-|-0-2/1-----2/3/2-|
D :-3---------------|-3---0-----------|-----------------|-------0---------|
A :---0--3-----0----|----------3--0---|-3--0--2--0------|-----------------|
E :-----------------|--------0--------|------------5--0-|-3-------0------0|



   F6/9  D/A     F6/9  D/A    F6/9 D/A  F6/9   D/A
   Mm... hmm...   mm.. hmm..  mm.. hmm  hmmm...... 

  F6/9               NC              Dm
  2. hmm,  hmm  
e :-0---------------|-----------------|-0-0-----0-------|-0---------------|
B :-0---------------|-----------0-2/0-|-3---3---3-0-0-0-|-0-0-0-0-0-0-----|
G :-2--2/1----------|-----------------|-4-------4-0-0-0-|---0-0-0---0-0-0-|
D :--------0------0-|---0---0---------|---------------0-|-3-----0-2-----0-|
A :----------0--3---|-2---1---0-------|-------0-0-0-2---|---0-2-----0-2---|
E :-3---------------|-----------------|-0---------------|-----------------|

     
e :-0---------------|-0---------------|-----------------------------------|
B :-0-0-0--0---0-0-0|-0-0-0-0-0-0-0-0-|-0---------------------------------|
G :---0-0--0---0-0-0|-0-0-0-0-0-0-0-0-|-0---2/1--------2/4/2--------------|
D :-3-2----0--------|-----------------|---------0-------------------------|
A :-----3----------0|-3-0-2-0---0-2-0-|-----------0-----------------------|
E :----------0-0-3--|---------5-------|-3--------------------0------------|

                                                           D      
                                                           Mm..   Hmm....
e :---------------|-0------0----------|-0-----------------|---------------|
B :-0------0------|-0-0----0--------0-|-0--0-0-0-0--0-0-0-|-0-------------|
G :--------0------|---0----0--------0-|-0--0-0-0-0--0-0-0-|-0-2/1---2/4/2-|
D :-3-------------|-3-0---------------|-------------------|------0--------|
A :-----0--3----0-|-----------------0-|-3--0-2-0----0-2-0-|---------------|
E :---------------|--------0-----3----|----------5--------|-3------0-----0|


  
   F6/9  D/A     F6/9  D/A     F6/9  D/Am
   mm... hmm...   mm.. hmm..   Lo.. lo........ 


   F6/9        D/A
   Lo...    lo.....  NC
e :-----------------|---0---0----0--------|----------------0--------------|
B :-----------------|---------------------|---0--2--3-----------3---3-----|
G :-----------------|---------------------|-------------------------------|
D :-----------------|---0---0----0--------|-------------------------------|
A :-----------------|-3---2----1---0---0--|-------------------------------|
E :-----------------|---------------------|-------------------------------|
 


Soggy Bottom Boys Tabs & Chords



Soggy Bottom Boys Tabs, Tablatures, Chords, Lyrics

Buy Soggy Bottom Boys CD
Soggy Bottom Boys
Buy Soggy Bottom Boys CD

  1. Soggy Bottom Boys - Hard Time Killing Floor Blues Chords
  2. Soggy Bottom Boys - I Am A Man Of Constant Sorrow(harmonica) Tabs
  3. Soggy Bottom Boys - In The Jailhouse Now Chords
  4. Soggy Bottom Boys - Man Of Constant Sorrow Chords
  5. Soggy Bottom Boys - Man Of Constant Sorrow 2 Chords
  6. Soggy Bottom Boys - Man Of Constant Sorrow 3 Chords



cowboylyrics.com
All lyrics are property and copyright of their owners. All lyrics provided for educational purposes only.