, Star Spangled Banner In (e) Tabs, Chords, Lyrics

, Star Spangled Banner In (e) Tabs, Chords

 SITE MENU
 Request Tabs
 Add/Correct Tabs
 DMCA Policy
 Country Sheet Music
0

BROWSE LYRICS AND TABS BY ARTIST/BAND NAME: SEARCH HERE:
A B C D E F G H I J K L M N O P Q R S T U V W X Y Z #
 

- Star Spangled Banner In (e) (Chords)


CD
 Sheet music
Posters
THE STAR SPANGLED BANNER   IN(E)

This is my first tab, ever, so please be gentle. 
There are a lot of little finger stretches, exercises and chord changes. 
They may not be labled correctly. Butt, (and that's a big butt) 
These chord patterns help me position my fingers correctly to play the song.  
H is the harmonic on the high e string 12th fret.
I added the opional a chord at the end. 
I just like it. Thanks again to everyone for submitting such good tabs.

      E                    BM7     E     B  A   E
    E-----------04-2-0-----2--2-2-4-2-0-2--0-X-0-0---0
    B-0-------0-0-0-0-0-----0--0-0-0-0-0-0--2-4----0--0
    G---1---1---1-1-11-1-2-2--2-2-1-1-1-2--2-2-----1-1
    D-----2---2-2-2-2-2-2-2-1--1-1-2-2-2-1--2-2-------2
    A-2-----2---2-2-2-2-----2--2-2-2-2-1-2------------2
    E-----0-----0-------------------------------0-0-0-0
      
      E                     B      E     B  A   E
    E-----------04-2-0-----2--2-2-4-2-0-2--0-X-0-0---0
    B-0-------0-0-0-0-0-----0--0-0-0-0-0-0--2-4----0--0
    G---1---1---1-1-11-1-2-2--2-2-1-1-1-2--2-2-----1-1
    D-----2---2-2-2-2-2-2-2-1--1-1-2-2-2-1--2-2-------2
    A-2-----2---2-2-2-2-----2--2-2-2-2-1-2------------2
    E-----0-----0-------------------------------0-0-0-0
      
      E/G#    A B    A            E     B A B E G#A B
    E4-4-4-5-7-7-5-4-2-4-5-5-5-4-2-0-2-0-X-0-0---2
    B-5-5-5-4-4-4--2-2-2-2-2-2--2-0-0-0-0-2-4-0---0-0
    G-4-4-4-4-4-4--2-2-2-2-2-2--2-1-1-1-2-2-2-1-1-2-2
    D-6-6-6-6-4-4--2-2-2-2-2-2--2-2-2-2-1-2-2-2-2-2-1
    A-7-7-7--------0-0-0-0-0-0--0-2-2-2-2-0-0-2-----2
    E-0-0-0-----------------------0-0-0-------0------
      
      B E       A/G#              E  B
    E-2-0-0-0-X-0-0-0-2-4-5-4-2-0-0--2--2-2-2-2-0-2-4-5-0H12
    B-0-0-0-0-4-2-2-2-2-2-2-2-2-2-0--0--0-0-0-0-0-0-0---0
    G-2-1-1-1-2-2-2-2-2-2-2-2-2-2-1--2--2-2-2-2-1-1-1---1
    D-1-2-2-2-2-2-2-2-2-2-2-2-2-2-2--1--1-1-1-1-2-2-2---2
    A-2-2-2-2-0-0-0-0-0-0-0-0-0-0-1--2--2-2-2-2-2-2-2---2
    E---0-0-0-------------------------------------------0

         
       E        B      A        E
    E--0-2-4--5-2-0--------0---------0--
    B--0-0-0----0---4-----2-2-------0---
    G--1-1-1----2--------2---2-----1----
    D--2-2-2----1-------2-----2---2-----
    A--2-2-2----2-2-2--0-------0-2------
    E--0-0-0--------------------0------- 


Star Spangled Banner Tabs & Chords



Star Spangled Banner Tabs, Tablatures, Chords, Lyrics

Buy Star Spangled Banner CD
Star Spangled Banner
Buy Star Spangled Banner CD

  1. Star Spangled Banner - Star Spangled Banner In (e) Chords



cowboylyrics.com
All lyrics are property and copyright of their owners. All lyrics provided for educational purposes only.