, Brown Eyed Girl (picking) Tabs, Chords, Lyrics

, Brown Eyed Girl (picking) Tabs, Chords

 SITE MENU
 Request Tabs
 Add/Correct Tabs
 DMCA Policy
 Country Sheet Music
0

BROWSE LYRICS AND TABS BY ARTIST/BAND NAME: SEARCH HERE:
A B C D E F G H I J K L M N O P Q R S T U V W X Y Z #
 

- Brown Eyed Girl (picking) (Tabs)


CD
 Sheet music
Posters
Steinar Albrigtsen - Brown Eyed Girl
Bound To Wander (1992)


Only 1. verse is picked

E F#m' E Bsus2
e-------------0----------------:
B----0------0------0------2----:
G-----1----2-2------1----4-4---: 4 times
D---2-----4-------2-----4------:
A--------4-------------2-------:
E--0-------------0-------------:

Asus2 Bsus2 E C#m A B E Bsus2 E
e--------------------0------------------------------------------
B-----0------2--------0----5------2-------4-------0-------2---0-
G----2-2----4-4-----1-----6-6----2-2-----4-4-----1-------4-4--1-
D---2------4-------2-----6------2-------4-------2-------4-----2-
A--0----0-2-----2-------4------0-----0-2-----2-------0-2------2-
E----------------0----------------------------0-----------------


Chords used:
E     - 022100
F#m'  - x44200
Bsus2 - x24422 in Scandinavia: Hsus2
Asus2 - x02200
B     - x24442 in Scandinavia: H
C#m   - x46654


Steinar Albrigtsen Tabs & Chords



Steinar Albrigtsen Tabs, Tablatures, Chords, Lyrics

Buy Steinar Albrigtsen CD
Steinar Albrigtsen
Buy Steinar Albrigtsen CD

  1. Steinar Albrigtsen - Broken Piano Tabs
  2. Steinar Albrigtsen - Brown Eyed Girl (picking) Tabs
  3. Steinar Albrigtsen - Don't Ask Me To Grow Another Heart Tabs
  4. Steinar Albrigtsen - In Rosa's Heart Chords
  5. Steinar Albrigtsen - She Belongs To The Rain Tabs
  6. Steinar Albrigtsen - The Beginning Of The End Chords
  7. Steinar Albrigtsen - Till The Morning Comes Chords



cowboylyrics.com
All lyrics are property and copyright of their owners. All lyrics provided for educational purposes only.