Marty Stuart, Red, Red Wine And Cheatin' Songs Tabs, Chords, Lyrics

Marty Stuart, Red, Red Wine And Cheatin' Songs Tabs, Chords

 SITE MENU
 Request Tabs
 Add/Correct Tabs
 DMCA Policy
 Country Sheet Music
0

BROWSE LYRICS AND TABS BY ARTIST/BAND NAME: SEARCH HERE:
A B C D E F G H I J K L M N O P Q R S T U V W X Y Z #
 

Marty Stuart - Red, Red Wine And Cheatin' Songs (Tabs)


Marty Stuart CD
Marty Stuart Sheet music
Marty Stuart Posters
Red Red Wine & Cheatin' Songs             Marty Stuart

Hopefully this is pretty close to how Marty plays it.  The same chord pattern
is used throughout the song.  Thanks to RoC for the lyrics.


INTRO
E------------------77777777------STEEL--------------------------------
B-5-5-5-55555555---99999999-----------12------12------12--14(15)~--14-
G-4-6-4----------6--------------11(13)--11(13)--11(13)------b---------
D---------------------------------b-------b-------b-------------------
A---------------------------------------------------------------------
E---------------------------12\---------------------------------------

E--STEEL--------------------------------
B-------12------12------12--14(15)~--14-
G-11(13)--11(13)--11(13)------b---------
D---b-------b-------b-------------------
A---------------------------------------
E---------------------------------------

(E) Red, red wine and (A) cheatin' (E) songs
Lately this bar room's where (B7) I call my (E) home 
Somewhere, somehow my (A) baby went (E) wrong 
now it's red red wine and (B7) cheatin' (E) songs

repeat steel part of intro

For ten long years, not one single drop
twelve months later, I haven't stopped 
I'm covering the misery of a good love grown cold
and losin' what's left of my mind and soul
to that....

red red wine and cheatin' songs
Lately this bar room's where I call my home 
Somewhere somehow my baby went wrong
Now it's red red wine and cheatin' songs

SOLO

E-------4444444-444-7777777-101010101012-7--7----7----7----7----7----7----7-----
B-5-5-5-5555555-555-9999999-121212121212-9---7(9)-7(9)-7(9)-7(9)-7(9)-7(9)-7(9)-
G-4-6-4---------------------------------------b----b----b----b----b----b----b---
D-------------------------------------------------------------------------------
A-------------------------------------------------------------------------------
E-------------------------------------------------------------------------------

E---------------------|----12----12----12----/12--12--12--12--12--12--12--12--12-----
B-----0----0----------|------12----12----12--/12--12--12--12--12--12--12--12--12-----
G-2(3)-2(3)-(3)2-0----|-/9-----13----13----13--(16)(16)(16)(16)(16)(16)(16)(16)(16)--
D--b----b----pbr---2--|--------pb----------------------------------------------------
A---------------------|--------------------------------------------------------------
E---------------------|--------------------------------------------------------------

E-12-----12-----12-----12-----12-----12-----------------------------------|
B-12-----12-----12-----12-----12-----12-----------------------------------|
G-14(16)-14(16)-14(16)-14(16)-14(16)-14(16)--------4----4-----------------|
D---b------b------b------b------b------b-------4(6)-4(6)------------------|
A-----------------------------------------------b----b----0---------------|
E------------------------------------------12\--------------3-0--2-3-2-0--|

Cigerette smoke, powder and paint
Can't make up for what is and what ain't
When the truth starts to rumble and it starts to roar 
I ask the bar maid to pour me some more
of that....

Red red wine and cheatin' songs
Lately this bar room's where I call my home
Somewhere, somehow my baby went wrong, 
now it's red red rine and cheatin' songs

Somewhere, somehow my baby went wrong,
now it's red red wine and cheatin' songs

STEEL SOLO TO END
 


Stuart Marty Tabs & ChordsStuart Marty Lyrics



Stuart Marty Tabs, Tablatures, Chords, Lyrics

Buy Stuart Marty CD
Stuart Marty
Buy Stuart Marty CD

  1. Stuart Marty - Back To The Country Chords
  2. Stuart Marty - Blue Train Chords
  3. Stuart Marty - Branded Chords
  4. Stuart Marty - Bridge Washed Out Chords
  5. Stuart Marty - Burn Me Down Chords
  6. Stuart Marty - Burn Me Down 2 Chords
  7. Stuart Marty - By George Chords
  8. Stuart Marty - Casino Chords
  9. Stuart Marty - Country Boy Rock And Roll Chords
  10. Stuart Marty - Cry Cry Cry Chords
  11. Stuart Marty - Dark Bird Chords
  12. Stuart Marty - Doin' My Time Chords
  13. Stuart Marty - Don't Leave Her Lonely Too Long Chords
  14. Stuart Marty - Drifting Apart Chords
  15. Stuart Marty - Even Santa Claus Gets The Blues Chords
  16. Stuart Marty - Farmers Blues Chords
  17. Stuart Marty - Get Back To The Country Chords
  18. Stuart Marty - Ghost Train Four-oh-ten Chords
  19. Stuart Marty - Hangman Chords
  20. Stuart Marty - Hard Working Man Chords
  21. Stuart Marty - Hey Baby Chords
  22. Stuart Marty - High On A Mountain Top Chords
  23. Stuart Marty - High On A Mountian Top Tabs
  24. Stuart Marty - Hillbilly Rock Chords
  25. Stuart Marty - Hobos Prayer Chords
  26. Stuart Marty - Honky Tonkin I Do Best Chords
  27. Stuart Marty - I Can't Even Walk Chords
  28. Stuart Marty - I Want A Woman Chords
  29. Stuart Marty - If I Ain't Got You Chords
  30. Stuart Marty - If There Ain't There Oughta Be Tabs
  31. Stuart Marty - If There Ain't, There Oughta Be Tabs
  32. Stuart Marty - Ill Be There For You Chords
  33. Stuart Marty - Kiss Me I'm Gone Chords
  34. Stuart Marty - Little Things Chords
  35. Stuart Marty - Lonesome Whistle Blues Chords
  36. Stuart Marty - Long Black Veil Chords
  37. Stuart Marty - Love & Luck Chords
  38. Stuart Marty - Me And Billy The Kid Chords
  39. Stuart Marty - Now That's Country Tabs
  40. Stuart Marty - Oh, What A Silent Night Chords
  41. Stuart Marty - Reasons Chords
  42. Stuart Marty - Red, Red Wine And Cheatin' Songs Tabs
  43. Stuart Marty - Shelter From The Storm Chords
  44. Stuart Marty - Sometimes The Pleasures Worth The Pain Chords
  45. Stuart Marty - Soul's Chapel Tabs
  46. Stuart Marty - Sure Wanna Keep My Wine Chords
  47. Stuart Marty - Tempted Chords
  48. Stuart Marty - That's Country Tabs
  49. Stuart Marty - The Coal Mine Blues Chords
  50. Stuart Marty - The King Of Dixie Chords
  51. Stuart Marty - The Weight (intro) Tabs
  52. Stuart Marty - There's A Rainbow At The End Of Every Storm Chords
  53. Stuart Marty - Till I Found You Chords
  54. Stuart Marty - Western Girls Chords
  55. Stuart Marty - Wishfull Thinking Tabs
  56. Stuart Marty - You Can't Stop Love Chords



cowboylyrics.com
All lyrics are property and copyright of their owners. All lyrics provided for educational purposes only.