Marty Stuart, Soul's Chapel Tabs, Chords, Lyrics

Marty Stuart, Soul's Chapel Tabs, Chords

 SITE MENU
 Request Tabs
 Add/Correct Tabs
 DMCA Policy
 Country Sheet Music
0

BROWSE LYRICS AND TABS BY ARTIST/BAND NAME: SEARCH HERE:
A B C D E F G H I J K L M N O P Q R S T U V W X Y Z #
 

Marty Stuart - Soul's Chapel (Tabs)


Marty Stuart CD
Marty Stuart Sheet music
Marty Stuart Posters
Marty Stuart:Soul's Chapel

Capo 1st fret

According to my sources, I hear Marty keeps a guitar tuned up a half
step. Capoing 1 accomplishes the same thing.

All frets are relative to the capo.


E-2h4p2-4-2-------2-0h2p0-2-0-------0-------------11--------9---3-
B-4-----4-2h4p2---2-2-----2-0h2p0---0-2/4-4-----------------------
G---------------4-----------------2---2/4-4--9/11----11-7/9---9-4-
D-----------------------------------------------------------------
A-----------------------------------------------------------------
E-----------------------------------------------------------------


E-2/3\2-1-0-0-----5------------------------------11--------9---3----
B-------------3---5b7-5b7-4-----5b7r5-3b4---------------------------
G-3/4\3-2-1-----4-----------4-------------4-9/11----11-7/9---9-4----
D-----------------------------4-------------------------------------
A-------------------------------------------------------------------
E-------------------------------------------------------------------

E-2/3\2-1-0-0-----5------------------5---------------------9----9---
B-------------3---5b7-5b7-4-----5bh7---7r5-3b4----------------------
G-3/4\3-2-1-----4-----------4------------------4-4-4--8/10---10---10
D-----------------------------4-------------------------------------
A-------------------------------------------------------------------
E-------------------------------------------------------------------


E-9----9-----9-------12----12----12----12----12-------17-------------
B-----------------------------------------------17/19----19r17-15----
G---10----10---11/13----13----13----13----13----------------------16-
D--------------------------------------------------------------------
A--------------------------------------------------------------------
E--------------------------------------------------------------------

E----------------------------------11--------9---2/3-2/3\2-1-0-0-----
B-------------15-------------------------------------------------3---
G-14h16-14h16----16-14h16-16\-9/11----11-7/9---9-3/4-3/4\3-2-1-----4-
D--------------------------------------------------------------------
A--------------------------------------------------------------------
E--------------------------------------------------------------------


E-5---5-----------------5------------11-------9------7-----2/3\4-1-0-
B-5b7-5b7-5b7r5p3-------7r5-3-----------12------10-----8-------------
G-----------------4-4-4-------4-9/11-------11------9-----7-3/4\3-2-1-
D--------------------------------------------------------------------
A--------------------------------------------------------------------
E--------------------------------------------------------------------



E-0------5-----5----------------------9----9----9----9----9-------12-
B---3----5b7r5-5b7r5-3-----------------------------------------------
G-----4----------------4-----2---8/10---10---10---10---10---11/13----
D------------------------2/4-----------------------------------------
A------------------------------2-------------------------------------
E--------------------------------------------------------------------


E----12----12----12----12-------17-----------------------------------
B-------------------------17/19----19r17p15-17----------------15-----
G-13----13----13----13-------------------------16-16-16-16-16----16--
D--------------------------------------------------------------------
A--------------------------------------------------------------------
E--------------------------------------------------------------------


E----------------3---3---3-----0---0-----------2-----------3-------7-
B----------0-------------------------3b4p0-------3b4-----------------
G-16\----2---2/4---4---4---0h1---1-----------4-------4-3/4---3-6/7---7
D------4-----------------------------------4-------------------------
A--------------------------------------------------------------------
E--------------------------------------------------------------------


E-----5-------9--------11----11----11-10-9-----7---7---7-----3---3---
B--------------------------------------------------------------------
G-5/6---6-8/9---9-9/11----11----11----10-9-7/8---8---8---3/4---4-----
D--------------------------------------------------------------------
A--------------------------------------------------------------------
E--------------------------------------------------------------------


E-----0---0---0--------------------------------1-----1-----1----1----
B----------------0-5b7r5-7r5-7r5-7r5-3---0h3p0---2-----2-----2----2--
G-0h1---1---1--------------------------4-----------1-----1-----1----1
D--------------------------------------------------------------------
A--------------------------------------------------------------------
E--------------------------------------------------------------------


E-----4-------5------------------------------------------------------
B------------------7/8-7/8-7/8-7/8-7/8-7/8-7/8-7/8-7/8-7/8-7/8-7/8-7-
G-3/4---4-4/5---5--6/7-6/7-6/7-6/7-6/7-6/7-6/7-6/7-6/7-6/7-6/7-6/7-6-
D--------------------------------------------------------------------
A--------------------------------------------------------------------
E--------------------------------------------------------------------


E-6\------11---------9---2/3-7--------3-0-----------------5----------
B-7\---------------------------8----------3-5b7r5-7r5-3-----7r5-3----
G-6\-9/11----11--7/9---9-3/4------3/4---1---------------4---------4--
D--------------------------------------------------------------------
A--------------------------------------------------------------------
E--------------------------------------------------------------------


E------11--------9-------7---7---2/3\2-1-0-0-----5---5---------------
B------------------------------8-------------3---5b7-5b7-3b4---------
G-9/11----11-7/9---9-6/7---7-----3/4\3-2-1-----4-----------------7---
D------------------------------------------------------------7/9-----
A--------------------------------------------------------------------
E--------------------------------------------------------------------


E------7----------------------------------------------------------7--
B--------10-7---------------------7---8-------8/9--11-9-------------9
G-9b11--------9-7-----7-7---7-7-----8---9-----9/10-11-9h10----8/9----
D-----------------9-7-----9-----9---------10-10/11---------11--------
A--------------------------------------------------------------------
E--------------------------------------------------------------------


E---8--------9--9--9--9--9-------------------------------------------
B-----10----11-11-11-11-11-------------------------------------------
G-9------10-11-11-11-11-11------4-----7------2------------4-----7----
D-----------------------------4-----7------2-------2----4-----7------
A---------------------------2-----5------0-------2----2-----5--------
E----------------------------------------------0---------------------


E-----------------------------------------------------11-------------
B-----------------------------------------0---4----------------------
G-----2-----------4-----7-----2-----3-------2----9/11----------------
D---2-------2---4-----7-----2-----3-----4----------------------------
A-0-------2---2-----5-----0-----1-----2------------------------------
E-------0------------------------------------------------------------







Stuart Marty Tabs & ChordsStuart Marty Lyrics



Stuart Marty Tabs, Tablatures, Chords, Lyrics

Buy Stuart Marty CD
Stuart Marty
Buy Stuart Marty CD

  1. Stuart Marty - Back To The Country Chords
  2. Stuart Marty - Blue Train Chords
  3. Stuart Marty - Branded Chords
  4. Stuart Marty - Bridge Washed Out Chords
  5. Stuart Marty - Burn Me Down Chords
  6. Stuart Marty - Burn Me Down 2 Chords
  7. Stuart Marty - By George Chords
  8. Stuart Marty - Casino Chords
  9. Stuart Marty - Country Boy Rock And Roll Chords
  10. Stuart Marty - Cry Cry Cry Chords
  11. Stuart Marty - Dark Bird Chords
  12. Stuart Marty - Doin' My Time Chords
  13. Stuart Marty - Don't Leave Her Lonely Too Long Chords
  14. Stuart Marty - Drifting Apart Chords
  15. Stuart Marty - Even Santa Claus Gets The Blues Chords
  16. Stuart Marty - Farmers Blues Chords
  17. Stuart Marty - Get Back To The Country Chords
  18. Stuart Marty - Ghost Train Four-oh-ten Chords
  19. Stuart Marty - Hangman Chords
  20. Stuart Marty - Hard Working Man Chords
  21. Stuart Marty - Hey Baby Chords
  22. Stuart Marty - High On A Mountain Top Chords
  23. Stuart Marty - High On A Mountian Top Tabs
  24. Stuart Marty - Hillbilly Rock Chords
  25. Stuart Marty - Hobos Prayer Chords
  26. Stuart Marty - Honky Tonkin I Do Best Chords
  27. Stuart Marty - I Can't Even Walk Chords
  28. Stuart Marty - I Want A Woman Chords
  29. Stuart Marty - If I Ain't Got You Chords
  30. Stuart Marty - If There Ain't There Oughta Be Tabs
  31. Stuart Marty - If There Ain't, There Oughta Be Tabs
  32. Stuart Marty - Ill Be There For You Chords
  33. Stuart Marty - Kiss Me I'm Gone Chords
  34. Stuart Marty - Little Things Chords
  35. Stuart Marty - Lonesome Whistle Blues Chords
  36. Stuart Marty - Long Black Veil Chords
  37. Stuart Marty - Love & Luck Chords
  38. Stuart Marty - Me And Billy The Kid Chords
  39. Stuart Marty - Now That's Country Tabs
  40. Stuart Marty - Oh, What A Silent Night Chords
  41. Stuart Marty - Reasons Chords
  42. Stuart Marty - Red, Red Wine And Cheatin' Songs Tabs
  43. Stuart Marty - Shelter From The Storm Chords
  44. Stuart Marty - Sometimes The Pleasures Worth The Pain Chords
  45. Stuart Marty - Soul's Chapel Tabs
  46. Stuart Marty - Sure Wanna Keep My Wine Chords
  47. Stuart Marty - Tempted Chords
  48. Stuart Marty - That's Country Tabs
  49. Stuart Marty - The Coal Mine Blues Chords
  50. Stuart Marty - The King Of Dixie Chords
  51. Stuart Marty - The Weight (intro) Tabs
  52. Stuart Marty - There's A Rainbow At The End Of Every Storm Chords
  53. Stuart Marty - Till I Found You Chords
  54. Stuart Marty - Western Girls Chords
  55. Stuart Marty - Wishfull Thinking Tabs
  56. Stuart Marty - You Can't Stop Love Chords



cowboylyrics.com
All lyrics are property and copyright of their owners. All lyrics provided for educational purposes only.