Marty Stuart, That's Country Tabs, Chords, Lyrics

Marty Stuart, That's Country Tabs, Chords

 SITE MENU
 Request Tabs
 Add/Correct Tabs
 DMCA Policy
 Country Sheet Music
0

BROWSE LYRICS AND TABS BY ARTIST/BAND NAME: SEARCH HERE:
A B C D E F G H I J K L M N O P Q R S T U V W X Y Z #
 

Marty Stuart - That's Country (Tabs)


Marty Stuart CD
Marty Stuart Sheet music
Marty Stuart Posters
"THAT'S COUNTRY" by Marty Stuart

Note: this is only the main lead-guitar.

 INTRO:     

                G 

-----------------------0---0---0---0---0------3------3------3-------------------
-----------------------0---0---0---0---0------3-----3------3--------------------
------5-3--0----4-5-6--------------------5b(7)-5b(7)--5b(7)--5b(7)r5-3----------
-(0)--5-3--0--5-------5---5---5---5---5-----------------------------------------
--------------------------------------------------------------------------------
--------------------------------------------------------------------------------

                                      C                              

--------------------------------------8-8---8--8--8--------11-11-11--8--8--8----
--------------------------------------8-8---8--8--8------8-12-12-12-10-10-10----
----5--3-0--------------------9-10-11---------------9h10---11-11-11--9--9--9----
-5--5--3---3-3tr(5)-5/14\--10-------------10-10-10------------------------------
--------------------------------------------------------------------------------
--------------------------------------------------------------------------------


                  G                                   Bb         

-6-6-6------------------------------------------------------10-----------10-----
-8-8-8----------------------------------------------------11--11-------11--11---
-7-7-7--5b(7)r5-3---0-----0---------------0---3-0-----0-10------10-0-10------10-
------------------5---5-3s5-3----------0h3--3-----------------------------------
-----------------------------5-4-3-1-2------------------------------------------
--------------------------------------------------------------------------------

 A         Ab      G

------9--------8----------------------------------------------------------------
----10-10-----9-9--8\-----------------------------------------------------------
-0-9-----9-0-8---8-7\--/4-/4------------/4-/4-----------------------------------
-----------------------/5-/5-3----------/5-/5-----------------------------------
-------------------------------5-4-3-1------------------------------------------
---------------------------------------3----------------------------------------

VERSE 1:

Riding twenty miles on a midnight train (lick 1)
Just to go fishing in the pooring rain  (lick 2)
Take along your baby
Just 'cause you're in love              (lick 3) 
Fishing and lovin', I can't get enough

lick 1              lick 2             lick3
-----------------   ----------------   --------------------
-----------------   -3tr(6)---------   ----8---------------
--5-3-0----------   ----------------   -0-(7)r5p3---------- 
--5-3-0----------   ----------------   -----------5--------      
-----------------   ----------------   --------------------
-3---------------   ----------------   --------------------

CHORUS:

Well, that's Country         (w/ Riff A)
I was raised a country child
That's Country
Baby, that's my style        (lick 4)


Riff A:                                           lick 4:
C                     G        
-----------------------------------------------   ----------------
--/5-3--5---/5-3--5----------------------------   ----------------
--/5-3--5---/5-3--5---/4-/4-------------/4-/4--   --3-5-5b(7)-5-3-
----------------------/5-/5--3----------/5-/5--   -5--------------
-3-----------------------------5-4-3-1---------   ----------------
---------------------------------------3-------   ----------------

VERSE 2:

Got me a pick-up, I got a piece of nothing farm            (lick 5)
Shotgun and a hound dog, I got a tractor in the barn       (lick 6) 
Rockin' chair on my frontporch and a jug of home-made wine (lick 7) 
And I'm making music, that's how I spend my time

lick 5:          lick 6:         lick 7:
--------------   -------------   ----------3--
--------------   -------------   -(8)pr6-3----
--------------   -------------   -------------
---3-4-5------   ---3---3-5---   -------------
-5------------   -----5-------   -------------
---------3----   -------------   -------------

CHORUS:

Well, that's Country           (w/ Riff A)
I was born, yes, a country child
That's Country,
Baby, that's my style

Bridge:

C
You know every man and woman ought to have a place to lay their burdens down
D
Y'all can do that in that city, but it ain't the same in a big ole' town

GUITAR SOLO:

         G
  
                hold bend   
                    |--------|  
------------------------------10----------10b(13)-10-9-8-10--------------------------
-------8-10b(12)-10b(12)---------(12)pr10-------------------10b(11)-8~---------------
-7-7h9-------------------------------------------------------------------------------
-------------------------------------------------------------------------------------
-------------------------------------------------------------------------------------
-------------------------------------------------------------------------------------

                                    C

-3----3----------------------------------6---------6---------6---------6-------------
---------------------------------------8---------8---------8---------8---------------
-5h6--5h6p5p3-5p3p0---0----------7b(9)-----7b(9)-----7b(9)-----7b(9)-----7b(9)r7\----
-------------------/5--/5~/14\-------------------------------------------------------
-------------------------------------------------------------------------------------
-------------------------------------------------------------------------------------

                            G                         D

-13--------------13-----------------------------------17------17------17-------------
-13b(15)-13b(15)-13b(15)r13-11------------8----11-8---17b(19)-17b(19)-17b(19)--------
-------------------------------10----7h10---10---------------------------------------
-------------------------------------------------------------------------------------
-------------------------------------------------------------------------------------
-------------------------------------------------------------------------------------

 D                                    G

-17------17------17------17-----\-----15-15-15-13-------------6---6---6---6---6---6h7-
-17b(19)-17b(19)-17b(19)-17b(19)\-----15-15-15-13-11-13-11----6---6---6---6---6---6h8-
-----------------------------------------------------------12---7---7---7---7---7-----
--------------------------------------------------------------------------------------
--------------------------------------------------------------------------------------
--------------------------------------------------------------------------------------

BRIDGE:

-----------                         ----------------------
-3---5-6-5-                         -3---5-6--------------
-3h4-5-5-5-  repeat 2 times, then   -3h4-5-5-3b(5)--------
-3---5-7-5-                         -3---5-7------0h3h5---
-----------                         ----------------------
-----------                         -------------------3--
just 
(spoken:) Now let me talk to y'all one time

G

Have you ever laid in a field of clover late into the night?
And watch the shooting stars from heaven till the moon fades out of sight? (w/ lick 8)
Get up and go visiting, that's just what neighbors do                      (lick 9)
I'm proud to be from the country, now how 'bout you?                       (lick 10)

lick 8:                lick 9:                 lick 10:
            let ring
            |------|
--------------12p10--  --15------------------  -15----------------
---(12)pr11----------  -(17)pr15----15-------  -15b(17)r15-17\----
-10---------10-------  ----------14-14b(15)--  -------------------
---------------------  ----------------------  -------------------
---------------------  -----------


Stuart Marty Tabs & ChordsStuart Marty Lyrics



Stuart Marty Tabs, Tablatures, Chords, Lyrics

Buy Stuart Marty CD
Stuart Marty
Buy Stuart Marty CD

  1. Stuart Marty - Back To The Country Chords
  2. Stuart Marty - Blue Train Chords
  3. Stuart Marty - Branded Chords
  4. Stuart Marty - Bridge Washed Out Chords
  5. Stuart Marty - Burn Me Down Chords
  6. Stuart Marty - Burn Me Down 2 Chords
  7. Stuart Marty - By George Chords
  8. Stuart Marty - Casino Chords
  9. Stuart Marty - Country Boy Rock And Roll Chords
  10. Stuart Marty - Cry Cry Cry Chords
  11. Stuart Marty - Dark Bird Chords
  12. Stuart Marty - Doin' My Time Chords
  13. Stuart Marty - Don't Leave Her Lonely Too Long Chords
  14. Stuart Marty - Drifting Apart Chords
  15. Stuart Marty - Even Santa Claus Gets The Blues Chords
  16. Stuart Marty - Farmers Blues Chords
  17. Stuart Marty - Get Back To The Country Chords
  18. Stuart Marty - Ghost Train Four-oh-ten Chords
  19. Stuart Marty - Hangman Chords
  20. Stuart Marty - Hard Working Man Chords
  21. Stuart Marty - Hey Baby Chords
  22. Stuart Marty - High On A Mountain Top Chords
  23. Stuart Marty - High On A Mountian Top Tabs
  24. Stuart Marty - Hillbilly Rock Chords
  25. Stuart Marty - Hobos Prayer Chords
  26. Stuart Marty - Honky Tonkin I Do Best Chords
  27. Stuart Marty - I Can't Even Walk Chords
  28. Stuart Marty - I Want A Woman Chords
  29. Stuart Marty - If I Ain't Got You Chords
  30. Stuart Marty - If There Ain't There Oughta Be Tabs
  31. Stuart Marty - If There Ain't, There Oughta Be Tabs
  32. Stuart Marty - Ill Be There For You Chords
  33. Stuart Marty - Kiss Me I'm Gone Chords
  34. Stuart Marty - Little Things Chords
  35. Stuart Marty - Lonesome Whistle Blues Chords
  36. Stuart Marty - Long Black Veil Chords
  37. Stuart Marty - Love & Luck Chords
  38. Stuart Marty - Me And Billy The Kid Chords
  39. Stuart Marty - Now That's Country Tabs
  40. Stuart Marty - Oh, What A Silent Night Chords
  41. Stuart Marty - Reasons Chords
  42. Stuart Marty - Red, Red Wine And Cheatin' Songs Tabs
  43. Stuart Marty - Shelter From The Storm Chords
  44. Stuart Marty - Sometimes The Pleasures Worth The Pain Chords
  45. Stuart Marty - Soul's Chapel Tabs
  46. Stuart Marty - Sure Wanna Keep My Wine Chords
  47. Stuart Marty - Tempted Chords
  48. Stuart Marty - That's Country Tabs
  49. Stuart Marty - The Coal Mine Blues Chords
  50. Stuart Marty - The King Of Dixie Chords
  51. Stuart Marty - The Weight (intro) Tabs
  52. Stuart Marty - There's A Rainbow At The End Of Every Storm Chords
  53. Stuart Marty - Till I Found You Chords
  54. Stuart Marty - Western Girls Chords
  55. Stuart Marty - Wishfull Thinking Tabs
  56. Stuart Marty - You Can't Stop Love Chords



cowboylyrics.com
All lyrics are property and copyright of their owners. All lyrics provided for educational purposes only.