Marty Stuart, Wishfull Thinking Tabs, Chords, Lyrics

Marty Stuart, Wishfull Thinking Tabs, Chords

 SITE MENU
 Request Tabs
 Add/Correct Tabs
 DMCA Policy
 Country Sheet Music
0

BROWSE LYRICS AND TABS BY ARTIST/BAND NAME: SEARCH HERE:
A B C D E F G H I J K L M N O P Q R S T U V W X Y Z #
 

Marty Stuart - Wishfull Thinking (Tabs)


Marty Stuart CD
Marty Stuart Sheet music
Marty Stuart Posters
"WISHFULL THINKING" by Marty Stuart




Lyrics and Chords: (scroll down for tabs)

(chorus):

         G         F    C        G

Wishfull thinking,      wishfull thinking

             F         C          G          

Only dreams       that don't come true

          C

When that evening goes sinking
Wishfull thinking

          G

Where are you?

(verse):  G

A little voice inside convinced me

                    D      G

Made me think she'd turn around
But the deck was stacked against me

                           G      F        C     

By the time that deal went down-      that deal went down


(verse):


Lord, I wish I would have listened
Listened to my second mind
But the sweet lips I was kissing
Must have struck my reason blind, reason blind

repeat chorus


TABS

Intro (also main riff)

 G                F       C       G               F     C

-3-------------------------------------------------------------------------
---3------------------1-------1-3---------------------1-----1--------------
-----3b(4)-0--------0---0---0-----3b(4)-0---0-------0-----0---0------------
--------------0-2-3-------2---------------3---2---3-----2------------------
---------------------------------------------------------------------------
---------------------------------------------------------------------------

 G                F       C       G               F     C

-3-------------------------------------------------------------------------
----------------------1-------1-3---------------------1-----1--------------
----3b(4)--0--------0-------0-----3b(4)-0---0-------0-----0---0------------
--------------0-2-3-------2---------------3---2---3-----2------------------
---------------------------------------------------------------------------
---------------------------------------------------------------------------


WHEN THAT EVENING SUN...

          C

---------------------------------------------------------------------------
--------------1-----------1---------1-----------1--------------------------
----------------0---0---0---0---0-----0---0---0---0---0------ETC-----------
------------2-----2---3-------3---2-----2---3-------3----------------------
----------3----------------------------------------------------------------
---------------------------------------------------------------------------



GUITAR-SOLO

    C

----------------------------------15---------------------------------------
-------13------15-13--------13-------13--------13----13--------------------
----------15---------15--------15-------15--------15-----------------------
---/14-------14---------/14----------------/14-----------------------------
---------------------------------------------------------------------------
---------------------------------------------------------------------------

    G

----3----------------------------------------------------------------------
---------------------------------------------------------------------------
-----(4)pr2--0-----(6)pr5--3p0-------0---0---------------------------------
-------------------------------0-3h5---3-----------------------------------
---------------------------------------------------------------------------
---------------------------------------------------------------------------
 


Stuart Marty Tabs & ChordsStuart Marty Lyrics



Stuart Marty Tabs, Tablatures, Chords, Lyrics

Buy Stuart Marty CD
Stuart Marty
Buy Stuart Marty CD

  1. Stuart Marty - Back To The Country Chords
  2. Stuart Marty - Blue Train Chords
  3. Stuart Marty - Branded Chords
  4. Stuart Marty - Bridge Washed Out Chords
  5. Stuart Marty - Burn Me Down Chords
  6. Stuart Marty - Burn Me Down 2 Chords
  7. Stuart Marty - By George Chords
  8. Stuart Marty - Casino Chords
  9. Stuart Marty - Country Boy Rock And Roll Chords
  10. Stuart Marty - Cry Cry Cry Chords
  11. Stuart Marty - Dark Bird Chords
  12. Stuart Marty - Doin' My Time Chords
  13. Stuart Marty - Don't Leave Her Lonely Too Long Chords
  14. Stuart Marty - Drifting Apart Chords
  15. Stuart Marty - Even Santa Claus Gets The Blues Chords
  16. Stuart Marty - Farmers Blues Chords
  17. Stuart Marty - Get Back To The Country Chords
  18. Stuart Marty - Ghost Train Four-oh-ten Chords
  19. Stuart Marty - Hangman Chords
  20. Stuart Marty - Hard Working Man Chords
  21. Stuart Marty - Hey Baby Chords
  22. Stuart Marty - High On A Mountain Top Chords
  23. Stuart Marty - High On A Mountian Top Tabs
  24. Stuart Marty - Hillbilly Rock Chords
  25. Stuart Marty - Hobos Prayer Chords
  26. Stuart Marty - Honky Tonkin I Do Best Chords
  27. Stuart Marty - I Can't Even Walk Chords
  28. Stuart Marty - I Want A Woman Chords
  29. Stuart Marty - If I Ain't Got You Chords
  30. Stuart Marty - If There Ain't There Oughta Be Tabs
  31. Stuart Marty - If There Ain't, There Oughta Be Tabs
  32. Stuart Marty - Ill Be There For You Chords
  33. Stuart Marty - Kiss Me I'm Gone Chords
  34. Stuart Marty - Little Things Chords
  35. Stuart Marty - Lonesome Whistle Blues Chords
  36. Stuart Marty - Long Black Veil Chords
  37. Stuart Marty - Love & Luck Chords
  38. Stuart Marty - Me And Billy The Kid Chords
  39. Stuart Marty - Now That's Country Tabs
  40. Stuart Marty - Oh, What A Silent Night Chords
  41. Stuart Marty - Reasons Chords
  42. Stuart Marty - Red, Red Wine And Cheatin' Songs Tabs
  43. Stuart Marty - Shelter From The Storm Chords
  44. Stuart Marty - Sometimes The Pleasures Worth The Pain Chords
  45. Stuart Marty - Soul's Chapel Tabs
  46. Stuart Marty - Sure Wanna Keep My Wine Chords
  47. Stuart Marty - Tempted Chords
  48. Stuart Marty - That's Country Tabs
  49. Stuart Marty - The Coal Mine Blues Chords
  50. Stuart Marty - The King Of Dixie Chords
  51. Stuart Marty - The Weight (intro) Tabs
  52. Stuart Marty - There's A Rainbow At The End Of Every Storm Chords
  53. Stuart Marty - Till I Found You Chords
  54. Stuart Marty - Western Girls Chords
  55. Stuart Marty - Wishfull Thinking Tabs
  56. Stuart Marty - You Can't Stop Love Chords



cowboylyrics.com
All lyrics are property and copyright of their owners. All lyrics provided for educational purposes only.