, Boys In Boots Tabs, Chords, Lyrics

, Boys In Boots Tabs, Chords

 SITE MENU
 Request Tabs
 Add/Correct Tabs
 DMCA Policy
 Country Sheet Music
0

BROWSE LYRICS AND TABS BY ARTIST/BAND NAME: SEARCH HERE:
A B C D E F G H I J K L M N O P Q R S T U V W X Y Z #
 

- Boys In Boots (Tabs)


CD
 Sheet music
Posters
Boys in Boots (Tania Kernighan)

                                                                         
E||-----------------------|---------------------|-----------------------|
B||--2h-4----5----3----2--|----1/-2-------------|--2h-4----5----3----2--|
G||--2h-4----6----4----2--|----1/-2----4--------|--2h-4----6----4----2--|
D||-----------------------|------------4--------|-----------------------|
A||-----------------------|---------------------|-----------------------|
E||-----------------------|---------------------|-----------------------|


                                                                   
--------------------|-----------------------|---------------------|
--------------------|--2h-4----5----3----2--|----1/-2-------------|
----2/-4------------|--2h-4----6----4----2--|----1/-2----4--------|
----2/-4------------|-----------------------|------------4--------|
--------------------|-----------------------|---------------------|
--------------------|-----------------------|---------------------|


                                               
-----------------------|---------------------||
-----------------------|---------------------||
-----------------------|---------------------||
-----------------------|---------------------||
--x----x--5b---5b---2--|----------2----------||
-----------------------|--2h-5---------------||

Try this Wayne, I think it sounds similar if not the same


Tania Kernaghan Tabs & Chords



Tania Kernaghan Tabs, Tablatures, Chords, Lyrics

Buy Tania Kernaghan CD
Tania Kernaghan
Buy Tania Kernaghan CD

  1. Tania Kernaghan - Back To The Barn Chords
  2. Tania Kernaghan - Boys In Boots Tabs
  3. Tania Kernaghan - Mary Called Him Mister Chords
  4. Tania Kernaghan - Where The Murray Meets The Darling Chords



cowboylyrics.com
All lyrics are property and copyright of their owners. All lyrics provided for educational purposes only.