, Fire On The Ponchatrain 2 Tabs, Chords, Lyrics

, Fire On The Ponchatrain 2 Tabs, Chords

 SITE MENU
 Request Tabs
 Add/Correct Tabs
 DMCA Policy
 Country Sheet Music
0

BROWSE LYRICS AND TABS BY ARTIST/BAND NAME: SEARCH HERE:
A B C D E F G H I J K L M N O P Q R S T U V W X Y Z #
 

- Fire On The Ponchatrain 2 (Tabs)


CD
 Sheet music
Posters

---------------------------------------------------------------
-----------1-0-------------------------------------------------
-------0-------2-0---0---------------0---------------------0---
---0h2-------------2------0h2p---0h2---2-0-----------0-0h2-----
-3-----------------------------3-----------------0h2-----------
-------------------------------------------3---3---------------

-------------1-1-0---------------------------------------------
-3-0h3-s5-3--------3-3-1-0-1---1-------------1--1-0h1-------1--
---------------------------------0---0-----0----------0---0----
-----------------------------------2-----2--------------2------
---------------------------------------3-----------------------
---------------------------------------------------------------


The Lost Trailers Tabs & Chords



The Lost Trailers Tabs, Tablatures, Chords, Lyrics

Buy The Lost Trailers CD
The Lost Trailers
Buy The Lost Trailers CD

  1. The Lost Trailers - Country Folks (livin' Loud) Chords
  2. The Lost Trailers - Fire On The Ponchatrain Tabs
  3. The Lost Trailers - Fire On The Ponchatrain 2 Tabs
  4. The Lost Trailers - How 'bout You Don't Chords
  5. The Lost Trailers - The YMCA Sportspark Anti-Massacre Chords
  6. The Lost Trailers - Under FM Waves Chords
  7. The Lost Trailers - Underdog Chords



cowboylyrics.com
All lyrics are property and copyright of their owners. All lyrics provided for educational purposes only.