Mavericks, Things I Cannot Change Tabs, Chords, Lyrics

Mavericks, Things I Cannot Change Tabs, Chords

 SITE MENU
 Request Tabs
 Add/Correct Tabs
 DMCA Policy
 Country Sheet Music
0

BROWSE LYRICS AND TABS BY ARTIST/BAND NAME: SEARCH HERE:
A B C D E F G H I J K L M N O P Q R S T U V W X Y Z #
 

Mavericks - Things I Cannot Change (Chords)


Mavericks CD
Mavericks Sheet music
Mavericks Posters

Here's great tune by the Mavericks: nice rythtm, great hook, smart
lyrics - who could ask for more?

Things I Cannot Change
The Mavericks
Super Colossal Hits of the 90s, 1999

guitar 1: rhythm chords shown over lyrics and bars
guitar 2: intro riff, fills, solo, outro riff, and slow strum of
	  rhythm chords elsewhere

intro*:
	Am	C	Dm	E7	(x4)

verse 1:
    Am	       C    Dm	       E7	    Am
	Leaves fall     in the cool October air
		  C	Dm	  E7		 Am
	Days grow short     and I can't remember where
		  C    Dm	   E7		     Am
	I saw you last     turned against the summer light
		C   Dm		E7	     F
	Walking off     on that final August night
	      F	    Fm	      Fm	  C
	I was there     on my knees, all alone

chorus:
	     Am	   Dm*		     Fm		    C
	In a world     where nothing ever stays the same
	     Am	  Dm*		Fm		C
	I am left     with only things I cannot change
	       Am     Dm	       Fm	       C	C**
	You've gone  away  and left me things I cannot change

verse 2:

     Am		   C	Dm	    E7		Am
	Smoke will rise     and the fire always burns
		   C	 Dm		    E7		     Am
	Sands will drift     and tides will turn and I can't wrestle
		 C   Dm	     E7		      Am
	with the sea     rearrange the sky or fight
		    C	 Dm	 E7		 F
	against the wind     any more than I can bring
	F      Fm   Fm	      C
	   you back     to me

chorus:
	     Am	   Dm*		     Fm		    C
	In a world     where nothing ever stays the same
	     Am	  Dm*		Fm		C
	I am left     with only things I cannot change
	       Am     Dm	       Fm	       C	C
	You've gone  away  and left me things I cannot change
	   Am	 Dm		  Fm		  C
	So far  away  and left me things I cannot change

solo and outro*:
	
	Am	Dm	Fm	C
	Am	Dm	    Fm		    C
		    left me things I cannot cha--
	Am	Dm	    Fm		    C
	--------ge  left me things I cannot cha--
	Am	Dm	Fm	C
	--------ge
	Am	Dm	Fm	C	(x3)


*intro riff:	
  Am	    C	    Dm	     E7		repeat
e|--------|--------|--------|----------|
B|--------|--------|--------|----------|
G|--------|-0------|--------|----------|
D|--------|2-2---0-|0020----|----------|
A|----0-03|-------3|--------|-------320|
E|-----3--|--------|--------|00-10-----|

*Dm fill:
  Dm
e|--------|
B|--------|
G|--------|
D|---20---|
A|023-----|
E|--------|

**C fill:
  C
e|--------|
B|--------|
G|--------|
D|02------|
A|--320---|
E|--------|

*solo and outro riff:

  C	   	   Am 	    	    Dm	     	     Fm
	C  C   Dm  Am			 Dm Dm Dm Dm  Fm
e|------8--8---10-|5---------------|-----10-10-10-10|-----1~~~~~~----|
B|------8--8---10-|5---------------|-----10-10-10-10|----1-----------|
G|------9--9---10-|5---------------|-----10-10-10-10|---1------------|
D|------10-10--12-|7---------------|-----12-12-12-12|--3-------------|
A|------10-10--12-|7---------------|-----12-12-12-12|----------------|
E|----------------|----------------|----------------|----------------|

  C	   	   Am 	    	    Dm	     	     Fm
      C  C  Dm C   Am			 Dm Dm Dm Dm  Fm
e|----8--8--10-8--|5---------------|-----10-10-10-10|-----1~~~~~~----|
B|----8--8--10-8--|5---------------|-----10-10-10-10|----1-----------|
G|----9--9--10-9--|5---------------|-----10-10-10-10|---1------------|
D|----10-10-12-10-|7---------------|-----12-12-12-12|--3-------------|
A|----10-10-12-10-|7---------------|-----12-12-12-12|----------------|
E|----------------|----------------|----------------|----------------|

  C	   Am 	    Dm	     Fm		repeat
e|--------|--------|--------|--------|
B|--------|--------|--------|--------|
G|--------|-0------|--------|--------|
D|--------|2-2---0-|0-------|--------|
A|----0-03|-------3|--00----|3-------|
E|-----3--|--------|--------|--11----|


Am  x02210
C   x32010
Dm  x00231
E7  020100
F   x33211
Fm  x33111


The Mavericks Tabs & ChordsThe Mavericks Lyrics



The Mavericks Tabs, Tablatures, Chords, Lyrics

Buy The Mavericks CD
The Mavericks
Buy The Mavericks CD

  1. The Mavericks - All That Heaven Will Allow Chords
  2. The Mavericks - All You Do Is Bring Me Down Chords
  3. The Mavericks - All You Ever Do Is Bring Me Down (lead) Chords
  4. The Mavericks - Born To Be Blue Chords
  5. The Mavericks - Children Chords
  6. The Mavericks - Crying Shame Chords
  7. The Mavericks - Dance The Night Away Chords
  8. The Mavericks - Dance The Night Away (bass) Chords
  9. The Mavericks - Dance The Night Away (tab) Chords
  10. The Mavericks - Dream River Chords
  11. The Mavericks - Foolish Heart Chords
  12. The Mavericks - From Hell to Paradise Chords
  13. The Mavericks - Hell To Paradise Chords
  14. The Mavericks - Here Comes My Baby Chords
  15. The Mavericks - I Don't Care If You Love Me Anymore Chords
  16. The Mavericks - I Should Have Been True Chords
  17. The Mavericks - I Should Know Chords
  18. The Mavericks - In My Dreams Chords
  19. The Mavericks - Losing Side Of Me Chords
  20. The Mavericks - Missing You Chords
  21. The Mavericks - Missing You (intro) Chords
  22. The Mavericks - My Secret Flame Chords
  23. The Mavericks - Neon Blue Chords
  24. The Mavericks - Oh What A Thrill Chords
  25. The Mavericks - Pizziricco Chords
  26. The Mavericks - Pretend Chords
  27. The Mavericks - Should Have Been True Chords
  28. The Mavericks - The Air That I Breathe Chords
  29. The Mavericks - The Losing Side of Me Chords
  30. The Mavericks - The Writing on the Wall Chords
  31. The Mavericks - There Goes My Heart Chords
  32. The Mavericks - Things I Cannot Change Chords
  33. The Mavericks - Think Of Me When You're Lonely Chords
  34. The Mavericks - To Be With You Chords
  35. The Mavericks - What A Crying Shame Chords
  36. The Mavericks - Writing On The Wall Chords



cowboylyrics.com
All lyrics are property and copyright of their owners. All lyrics provided for educational purposes only.