, Roadworn & Weary Tabs, Chords, Lyrics

, Roadworn & Weary Tabs, Chords

 SITE MENU
 Request Tabs
 Add/Correct Tabs
 DMCA Policy
 Country Sheet Music
0

BROWSE LYRICS AND TABS BY ARTIST/BAND NAME: SEARCH HERE:
A B C D E F G H I J K L M N O P Q R S T U V W X Y Z #
 

- Roadworn & Weary (Tabs)


CD
 Sheet music
Posters
G            Am                Am               G
e|-------------------------------------------------------------------------|
B|-------------------------------------------------------------------------|
G|-------------------------------------------------------------------------|
D|---0--2/5-------5--5-5-2-2--------5--5-5-2-2-------0--2-5-5-0------------|
A|-------------------------------------------------------------------------|
E|-------------------------------------------------------------------------|
        G            Am                Am               G
e|-----(3)------------5-----------------5--------------(3)-----------------|
B|------3-------------5-----------------5---------------3------------------|
G|------4-------------5-----------------5---------------4------------------|
D|------5-------------7-----------------7---------------5------------------|
A|------5-------------7-----------------7---------------5------------------|
E|-----(3)-----------(5)---------------(5)-------------(3)-----------------|    
This road......               And its good.............

        G            Am                Am               G
e|-----(3)------------5-----------------5--------------(3)-----------------|
B|------3-------------5-----------------5---------------3------------------|
G|------4-------------5-----------------5---------------4------------------|
D|------5-------------7-----------------7---------------5------------------|
A|------5-------------7-----------------7---------------5------------------|
E|-----(3)-----------(5)---------------(5)-------------(3)-----------------|
      And I just ain't.......       Till the coffee's ..............

        C        D        G       Em       C       D         G
e|------0--------2--------3--------0-------0-------2---------3-------------|
B|------1--------3--------3--------0-------1-------3---------3-------------|
G|------0--------2--------0--------0-------0-------2---------0-------------|
D|------2--------0--------0--------2-------2-------0---------0-------------|
A|------3-----------------2--------2-------3-----------------2-------------|
E|-----(0)----------------3--------0-------0-----------------3-------------|
       Roadworn and weary.......

        G            Am                Am               G
e|-----(3)------------5-----------------5--------------(3)-----------------|
B|------3-------------5-----------------5---------------3------------------|
G|------4-------------5-----------------5---------------4------------------|
D|------5-------------7-----------------7---------------5------------------|
A|------5-------------7-----------------7---------------5------------------|
E|-----(3)-----------(5)---------------(5)-------------(3)-----------------|
      Now you, you.........             Maybe you're low on......
        
        G            Am                Am               G
e|-----(3)------------5-----------------5--------------(3)-----------------|
B|------3-------------5-----------------5---------------3------------------|
G|------4-------------5-----------------5---------------4------------------|
D|------5-------------7-----------------7---------------5------------------|
A|------5-------------7-----------------7---------------5------------------|
E|-----(3)-----------(5)---------------(5)-------------(3)-----------------|
      I know of a.......              That'll get ya thinkin......
 
        C        D        G       Em       C       D         G
e|------0--------2--------3--------0-------0-------2---------3-------------|
B|------1--------3--------3--------0-------1-------3---------3-------------|
G|------0--------2--------0--------0-------0-------2---------0-------------|
D|------2--------0--------0--------2-------2-------0---------0-------------|
A|------3-----------------2--------2-------3-----------------2-------------|
E|-----(0)----------------3--------0-------0-----------------3-------------|
       Roadworn and weary.......

        
        G            Am                Am               G
e|-------------------------------------------------------------------------|
B|-------------------------------------------------------------------------|
G|-------------------------------------------------------------------------|
D|---0--2/5-------5--5-5-2-2--------5--5-5-2-2-------0--2-5-5-0------------|
A|-------------------------------------------------------------------------|
E|-------------------------------------------------------------------------|

        G            Am                Am               G
e|-------------------------------------------------------------------------|
B|-------------------------------------------------------------------------|
G|-------------------------------------------------------------------------|
D|---0--2/5-------5--5-5-2-2--------5--5-5-2-2-0-2-5-2-2-0-2-5-5-0---------|
A|-------------------------------------------------------------------------|
E|-------------------------------------------------------------------------|

        C        D        G       Em       C       D         G
e|------0--------2--------3--------0-------0-------2---------3-------------|
B|------1--------3--------3--------0-------1-------3---------3-------------|
G|------0--------2--------0--------0-------0-------2---------0-------------|
D|------2--------0--------0--------2-------2-------0---------0-------------|
A|------3-----------------2--------2-------3-----------------2-------------|
E|-----(0)----------------3--------0-------0-----------------3-------------|
       Roadworn and weary.......

        C        D        G       Em       C       D         
e|------0--------2--------3--------0-------0-------2-----------------------|
B|------1--------3--------3--------0-------1-------3-----------------------|
G|------0--------2--------0--------0-------0-------2-----------------------|
D|------2--------0--------0--------2-------2-------0-----------------------|
A|------3-----------------2--------2-------3-------------------------------|
E|-----(0)----------------3--------0-------0-------------------------------|
       Roadworn and weary.......

        Em         C          C          D         G
e|------0----------0----------0----------2---------3----------------------|
B|------0----------1----------1----------3---------3----------------------|
G|------0----------0----------0----------2---------0----------------------|
D|------2----------2----------2----------0---------0----------------------|
A|------2----------3----------3--------------------2----------------------|
E|------0---------(0)--------(0)-------------------3----------------------|
   ...awhile till i see....  Roadworn and weary.....
        
        Am                Am              G
e|------5-----------------5--------------(3)-------------------|
B|------5-----------------5---------------3--------------------|
G|------5-----------------5---------------4--------------------|
D|------7-----------------7---------------5--------------------|
A|------7-----------------7---------------5--------------------|
E|-----(5)---------------(5)-------------(3)-------------------|
  (Harp solo)

        G            Am                Am               G
e|-----(3)------------5-----------------5--------------(3)-----------------|
B|------3-------------5-----------------5---------------3------------------|
G|------4-------------5-----------------5---------------4------------------|
D|------5-------------7-----------------7---------------5------------------|
A|------5-------------7-----------------7---------------5------------------|
E|-----(3)-----------(5)---------------(5)-------------(3)-----------------|
    
        C        D        G       Em       C       D         G
e|------0--------2--------3--------0-------0-------2---------3-------------|
B|------1--------3--------3--------0-------1-------3---------3-------------|
G|------0--------2--------0--------0-------0-------2---------0-------------|
D|------2--------0--------0--------2-------2-------0---------0-------------|
A|------3-----------------2--------2-------3-----------------2-------------|
E|-----(0)----------------3--------0------(0)----------------3-------------|

        C        D        G       Em       C       D         G 
e|------0--------2--------3--------0-------0-------2---------3-------------|
B|------1--------3--------3--------0-------1-------3---------3-------------|
G|------0--------2--------0--------0-------0-------2---------0-------------|
D|------2--------0--------0--------2-------2-------0---------0-------------|
A|------3-----------------2--------2-------3-----------------2-------------|
E|-----(0)----------------3--------0-------0-----------------3-------------|



The Supersuckers Tabs & Chords



The Supersuckers Tabs, Tablatures, Chords, Lyrics

Buy The Supersuckers CD
The Supersuckers
Buy The Supersuckers CD

  1. The Supersuckers - Roadworn & Weary Tabs



cowboylyrics.com
All lyrics are property and copyright of their owners. All lyrics provided for educational purposes only.