, King Of The Hill Tabs, Chords, Lyrics

, King Of The Hill Tabs, Chords

 SITE MENU
 Request Tabs
 Add/Correct Tabs
 DMCA Policy
 Country Sheet Music
0

BROWSE LYRICS AND TABS BY ARTIST/BAND NAME: SEARCH HERE:
A B C D E F G H I J K L M N O P Q R S T U V W X Y Z #
 

- King Of The Hill (Tabs)


CD
 Sheet music
Posters
King of the Hill

|---0-0----0------------------| 
|---2-2----0------------------| 
|---2-2----1------------------| 
|---2-2----2------------------| 
|-0--------2------------------| 
|-------0---------------------|
 
riff 1 
|----------------------------| 
|----------------------------| 
|----------------------------| 
|----------------------------| 
|-2-222-2-6-222--7-777-11-9--| 
|-0-000-0-4-000--5-555--9-7--| 

riff 2 
|----------------------------| 
|----------------------------|
|----------------------------|
|----------------------------|
|-2-222-2-6-22-7-6-44-6-4----| 
|-0-000-0-4-00-5-4-22-4-2----| 

repeat riff 1
 
riff 3 
|---------------------------------| 
|---------------------------------| 
|---------------------------------|
|------------------------------22-| 
|-14xx-11xx-9xx-7xx-6-66-7-6-2-22-| 
|-12xx--9xx-7xx-5xx-4-44-5-4-0-00-| 

riff 4 
|------------------------------------------------| 
|------------------------------------------------| 
|------------------------------------------------| 
|-6-6-6-6------------------7-777777--------------| 
|-4-4-4-4-6-6-6-6-77777777-5-555555--------------| 
|---------4-4-4-4-55555555-----------------------| 

repeat riff 1 and repeat riff 3 


Theme Songs Tabs & Chords



Theme Songs Tabs, Tablatures, Chords, Lyrics

Buy Theme Songs CD
Theme Songs
Buy Theme Songs CD

  1. Theme Songs - Green Acres Theme Tabs
  2. Theme Songs - King Of The Hill Tabs
  3. Theme Songs - Mario Bros. Tabs
  4. Theme Songs - Simpsons Tabs
  5. Theme Songs - The Simpsons (correct) Tabs
  6. Theme Songs - Theme From Walker, Texas Ranger Chords



cowboylyrics.com
All lyrics are property and copyright of their owners. All lyrics provided for educational purposes only.