Chris Thile, On Ice (outtro) Tabs, Chords, Lyrics

Chris Thile, On Ice (outtro) Tabs, Chords

 SITE MENU
 Request Tabs
 Add/Correct Tabs
 DMCA Policy
 Country Sheet Music
0

BROWSE LYRICS AND TABS BY ARTIST/BAND NAME: SEARCH HERE:
A B C D E F G H I J K L M N O P Q R S T U V W X Y Z #
 

Chris Thile - On Ice (outtro) (Tabs)


Chris Thile CD
Chris Thile Sheet music
Chris Thile Posters
i'm planning on to transpose the intro and outro in mandolin tablature soon 
like on monday or tuesday for some of u who already tansposed it good for u 
haha enjoy i'll probely be better if u copy this to microsoft word or note pad 
(since its so long) :P







------------------------------------------------------------------
--0---2--2--4--7--5-----------------------------------------------
-------------------------2--4--6--4-------------------------------
----------------------------------------2----4---6---9----10------
------------------------------------------------------------------
------------------------------------------------------------------

------------------------------------------------------------------------12-
----------0---2--2---4--7---5--------------------------10 12--14--16-------
-13---9-----------------------2--4---6-8-9--11--13-------------------------
---------------------------------------------------------------------------
---------------------------------------------------------------------------
---------------------------------------------------------------------------


Thile Chris Tabs & ChordsThile Chris Lyrics



Thile Chris Tabs, Tablatures, Chords, Lyrics

Buy Thile Chris CD
Thile Chris
Buy Thile Chris CD

  1. Thile Chris - Big Sam Thompson Chords
  2. Thile Chris - Bridal Veil Falls Chords
  3. Thile Chris - Club G.R.O.S.S. Chords
  4. Thile Chris - In The Arms Of The One Who Loves Me Chords
  5. Thile Chris - Jessamyn's Reel Chords
  6. Thile Chris - Laurie De' Tullins Chords
  7. Thile Chris - On Ice Chords
  8. Thile Chris - On Ice (mandolin Into Outro) Tabs
  9. Thile Chris - On Ice (outtro) Tabs
  10. Thile Chris - Raining At Sunset Chords
  11. Thile Chris - Ready For Anything Chords
  12. Thile Chris - Sinai To Canaan - Part 1 Tabs
  13. Thile Chris - Slime Rock Tabs
  14. Thile Chris - Song For A Young Queen Chords
  15. Thile Chris - Waltz For Dewayne Pomeroy Tabs
  16. Thile Chris - Waltz For Dewayne Pomeroy (mandolin) Tabs
  17. Thile Chris - When Mandolins Dream Tabs
  18. Thile Chris - You Deserve Flowers Tabs
  19. Thile Chris - You're An Angel And I'm Gonna Cry Chords



cowboylyrics.com
All lyrics are property and copyright of their owners. All lyrics provided for educational purposes only.