Chris Thile, Sinai To Canaan - Part 1 Tabs, Chords, Lyrics

Chris Thile, Sinai To Canaan - Part 1 Tabs, Chords

 SITE MENU
 Request Tabs
 Add/Correct Tabs
 DMCA Policy
 Country Sheet Music
0

BROWSE LYRICS AND TABS BY ARTIST/BAND NAME: SEARCH HERE:
A B C D E F G H I J K L M N O P Q R S T U V W X Y Z #
 

Chris Thile - Sinai To Canaan - Part 1 (Tabs)


Chris Thile CD
Chris Thile Sheet music
Chris Thile Posters
Artist: Chris Thile

Part A

E -------0-0h1p0---0-------0---------0---------------3/5-5/6-6---
A -5---5---------5---0-------------0-------0---------1/3-3/5-5---
D ---0-------------------2-------3-------5---------0-------------
G ---------------------2-------3-------5-----3-2-0---------------

E--0-0h1p0---0-------0-------0---------------1p0-0------------
A5---------5---0-----------0-------0---------------12'----0---
D------------------2-----3-------5---------0----------12'---0-
G----------------2-----3-------5-----3-2-0--------------------


E -------0-1-3p1p0---0-------0---------0---------------3/5-5/6-6-
A -5---5-----------5---0-------------0-------0---------1/3-3/5-5-
D ---0---------------------2-------3-------5---------0-----------
G -----------------------2-------3-------5-----3-2-0-------------

E----0-0h1p0---0-------0-------0---------------1p0-0------------
A--5---------5---0-----------0-------0---------------12'----0---
D--------------------2-----3-------5---------0----------12'---0-
G------------------2-----3-------5-----3-2-0--------------------


E -------0-0h1p0---0-------0---------0---------------3/5-5/6-6---
A -5---5---------5---0-------------0-------0---------1/3-3/5-5---
D ---0-------------------2-------3-------5---------0-------------
G ---------------------2-------3-------5-----3-2-0---------------

E--0-0h1p0---0-------0-------0---------------1p0-0------------
A5---------5---0-----------0-------0---------------12'----0---
D------------------2-----3-------5---------0----------12'---0-
G----------------2-----3-------5-----3-2-0--------------------


E -------0-0h1p0---0-------0---------0---------------3/5-5/6-6--
A -5---5---------5---0-------------0-------0---------1/3-3/5-5--
D ---0-------------------2-------3-------5---------0------------
G ---------------------2-------3-------5-----3-2-0--------------

E-----------------------------0-----1-0-----1p0-0-------------
A---0-0h1p0---0-----3-0-----5---------------------12'-----0---
D-5---------5---3-------5---------5-------0-----------12'---0-
G-----------------2-------3-----5-------0---------------------


Part B

E -----0-2-3-5-5-----5-5-----5-5-5/7-5-----5-----5-5-3-1-----1---1p0-----------
A -0-5-------------0-------0-------------0-----0-----------0---0-------0-3h5-5-
D ---------------0-------0-------------0-----0-----------0-----------0---------
G -----------------------------------------------------------------------------

E -----0-2-3-5-5-----5-5-----5-/10-9-5-----5-----5-5-3-1-----1---1p0-----------
A -0-5-------------0-------0-------------0-----0-----------0---0-------0-3/5-5-
D ---------------0-------0-------------0-----0-----------0-----------0---------
G -----------------------------------------------------------------------------


Dobro Solo (modified A part)

E ---x---x---x-3/5-5/6-6---x---x---x-1p0-0---------
A ---x---x---x-1/3-3/5-5---x---x---x-------12'-----
D ---x---x---x-------------x---x---x-----------12'-
G -2-x-3-x-5-x-----------2-x-3-x-5-x---------------

E---x---x---x-3/5-5/6-10---x---x---x-1p0-0---------
A---x---x---x-1/3-3/5-8----x---x---x-------12'-----
D---x---x---x--------------x---x---x-----------12'-
G-2-x-3-x-5-x------------2-x-3-x-5-x---------------

Part C

E --5-1-3-5-0-3-1--------------------------------3-
A ----------------5-3-0-3-0--------------------5---
D --------------------------3-3h5-3-2-0--5/7-7-----
G -------------------------------------------------
                                                   

5-6-10-8-5-3-1-0-1-----------------------------------
-------------------5-3-1-0-------------------/7-5-5--
---------------------------5-2-0-2h3-5-3-2-0---------
-----------------------------------------------------
                     | 3  || 3  |


E -5-6-5-3-1-3-1-0------------------------5-8-10-/12-13-12-10-17*-12*-18*-17*-15*-
A -----------------5-/7-3-/8-5-/10-7-8-10-----------------------------------------
D --------------------------------------------------------------------------------
G --------------------------------------------------------------------------------


Part D

E -----0-1--1-0------0-1--3-1-0------0-1--1-0------0-1--3--5-8-10-
A ---5----------5--5------------5--5----------5--5----------------
D -0--------------------------------------------------------------
G ----------------------------------------------------------------

E---0-1--1-0----------------------3-6-5-3-1-0---0-1-5--4-5-9--10-
A-5----------5--6-5-3-1-0-------4-------------5--------2-3-7--8--
D-------------------------5-3-2----------------------------------
G----------------------------------------------------------------

E -----0-1--1-0------0-1--3-1-0------0-1--1-0------0-1--3--5-8-10-
A ---5----------5--5------------5--5----------5--5----------------
D -0--------------------------------------------------------------
G ----------------------------------------------------------------

E---0-1--1-0----------------------3-6-5-3-1-0---0-1-5--4-5-9--10-
A-5----------5--6-5-3-1-0-------4-------------5--------2-3-7--8--
D-------------------------5-3-2----------------------------------
G----------------------------------------------------------------

Part E

E-----------------------------------------------------------5--8-10-
A-5-7-8--8-7-5--5-7-8--10--8--7-5--5-7-8--8-7-5--5-7-8--10----------
D-------------------------------------------------------------------
G-------------------------------------------------------------------

E-----------------------------------------------
A-5-7-8--8-7-5--5-7-8--10--8--7-5--5-7-8--8-7-5-
D-----------------------------------------------
G-----------------------------------------------

-------------------3-6-5-3-1-0---0-1-5--4-5-9--10-
-6-5-3-1-0-------4-------------5--------2-3-7--8--
-----------5-3-2----------------------------------
--------------------------------------------------

Part F

E--------------------------------------------------------------
A-5-7h8--5-7-8-8---7-7h8-5-7-8-7-7-7h8---7-8-12-11-10----5-7h8-
D--------------10--9-----------8-7-----7-----10-9--8---7-------
G--------------------------------------------------------------

E-------------------------------------------------------
A-5-7-8-8---7-7h8-5-7-8-7-7-7h8---7-8-12-11-10----5-7h8-
D-------10--9-----------8-7-----7-----10-9--8---7-------
G-------------------------------------------------------

E--------------------------------------------------------------
A-5-7h8--5-7-8-8---7-7h8-5-7-8-7-7-7h8---7-8-12-11-10----5-7h8-
D--------------10--9-----------8-7-----7-----10-9--8---7-------
G--------------------------------------------------------------

E-------------------------------------------------------
A-5-7-8-8---7-7h8-5-7-8-7-7-7h8---7-8-12-11-10----5-7h8-
D-------10--9-----------8-7-----7-----10-9--8---7-------
G-------------------------------------------------------


E------------------------------------------------------------------
A------------------------------------------------------------------
D-6--8--6-8-9-8--6--8--6-8-9-8--5--7--5-7-8-7--5--7--5-7-8-7-5-3-0-
G------------------------------------------------------------------


' = Harmonic
* = Tremelo


Thile Chris Tabs & ChordsThile Chris Lyrics



Thile Chris Tabs, Tablatures, Chords, Lyrics

Buy Thile Chris CD
Thile Chris
Buy Thile Chris CD

  1. Thile Chris - Big Sam Thompson Chords
  2. Thile Chris - Bridal Veil Falls Chords
  3. Thile Chris - Club G.R.O.S.S. Chords
  4. Thile Chris - In The Arms Of The One Who Loves Me Chords
  5. Thile Chris - Jessamyn's Reel Chords
  6. Thile Chris - Laurie De' Tullins Chords
  7. Thile Chris - On Ice Chords
  8. Thile Chris - On Ice (mandolin Into Outro) Tabs
  9. Thile Chris - On Ice (outtro) Tabs
  10. Thile Chris - Raining At Sunset Chords
  11. Thile Chris - Ready For Anything Chords
  12. Thile Chris - Sinai To Canaan - Part 1 Tabs
  13. Thile Chris - Slime Rock Tabs
  14. Thile Chris - Song For A Young Queen Chords
  15. Thile Chris - Waltz For Dewayne Pomeroy Tabs
  16. Thile Chris - Waltz For Dewayne Pomeroy (mandolin) Tabs
  17. Thile Chris - When Mandolins Dream Tabs
  18. Thile Chris - You Deserve Flowers Tabs
  19. Thile Chris - You're An Angel And I'm Gonna Cry Chords



cowboylyrics.com
All lyrics are property and copyright of their owners. All lyrics provided for educational purposes only.