Chris Thile, Song For A Young Queen Tabs, Chords, Lyrics

Chris Thile, Song For A Young Queen Tabs, Chords

 SITE MENU
 Request Tabs
 Add/Correct Tabs
 DMCA Policy
 Country Sheet Music
0

BROWSE LYRICS AND TABS BY ARTIST/BAND NAME: SEARCH HERE:
A B C D E F G H I J K L M N O P Q R S T U V W X Y Z #
 

Chris Thile - Song For A Young Queen (Chords)


Chris Thile CD
Chris Thile Sheet music
Chris Thile Posters
  p           p    				  p 
-5-4-0-2-----2-0---------------------0-----------5-4-0-2----
---------0-------4-5-----5-4-0-2-----------0-------------0--
-----------0-----------4---------2-2---2-2---2-2-----------0
---------------------4--------------------------------------

  p				     p	
-2-0---------------------0----------5-4-0-2-----2-0-------------
-----4-5-----5-4-0-2-----------0------------0-------4-5-----5-4-
-----------4---------2-2---2-2---22-----------0-----------4-----
---------4----------------------------------------------4----

			s	    pause
---------0-----------0-----0-----------!-----0-1-0-----------
-0-2-----------4-------4-5---5-3-0---0-!-3-5-------5-3-0---0-
-----2-2---2-2---2-2---------------5---!-----------------5---
---------------------------------------!---------------------

repeat first bit.


Thile Chris Tabs & ChordsThile Chris Lyrics



Thile Chris Tabs, Tablatures, Chords, Lyrics

Buy Thile Chris CD
Thile Chris
Buy Thile Chris CD

  1. Thile Chris - Big Sam Thompson Chords
  2. Thile Chris - Bridal Veil Falls Chords
  3. Thile Chris - Club G.R.O.S.S. Chords
  4. Thile Chris - In The Arms Of The One Who Loves Me Chords
  5. Thile Chris - Jessamyn's Reel Chords
  6. Thile Chris - Laurie De' Tullins Chords
  7. Thile Chris - On Ice Chords
  8. Thile Chris - On Ice (mandolin Into Outro) Tabs
  9. Thile Chris - On Ice (outtro) Tabs
  10. Thile Chris - Raining At Sunset Chords
  11. Thile Chris - Ready For Anything Chords
  12. Thile Chris - Sinai To Canaan - Part 1 Tabs
  13. Thile Chris - Slime Rock Tabs
  14. Thile Chris - Song For A Young Queen Chords
  15. Thile Chris - Waltz For Dewayne Pomeroy Tabs
  16. Thile Chris - Waltz For Dewayne Pomeroy (mandolin) Tabs
  17. Thile Chris - When Mandolins Dream Tabs
  18. Thile Chris - You Deserve Flowers Tabs
  19. Thile Chris - You're An Angel And I'm Gonna Cry Chords



cowboylyrics.com
All lyrics are property and copyright of their owners. All lyrics provided for educational purposes only.