Chris Thile, When Mandolins Dream Tabs, Chords, Lyrics

Chris Thile, When Mandolins Dream Tabs, Chords

 SITE MENU
 Request Tabs
 Add/Correct Tabs
 DMCA Policy
 Country Sheet Music
0

BROWSE LYRICS AND TABS BY ARTIST/BAND NAME: SEARCH HERE:
A B C D E F G H I J K L M N O P Q R S T U V W X Y Z #
 

Chris Thile - When Mandolins Dream (Tabs)


Chris Thile CD
Chris Thile Sheet music
Chris Thile Posters
Artist: Chris Thile

I tabbed this from the Essential Teqniques For Mandolin Video

 |   |   |   |    |   |   |   |    |   |   |   |    |   |   |   |    
|----------------|----0-2p0-------|----0-2p0-------|----0-3p0-------|
|----0---4-------|0-5-------5-----|0-5-------5-----|0-5-------5-----|
|------------0---|------------0-4-|------------4-2-|------------2-2-| 4
|----------------|----------------|----------------|----------------|

 |   |   |   |    |   |   |   |    |   |   |   |    |   |   |   |    
|----0-3p0-------|----0-5p0-------|----0-5p0-------|----0-3p0-------|
|0-4-------4-----|0-3-------3-----|0-3-------3-----|0-2-------2-----|
|------------2/4-|------------4/7-|------------7-5-|------------5/9-| 8
|----------------|----------------|----------------|----------------|

 |   |   |   |    |   |   |   |    |   |   |   |    |   |   |   |    
|----0-7p0-------|--------3-------|--------3-------|--------5-2-----|
|0-5-------5-----|----0-2---5-2-1-|0---0-1---5-1-0-|------0-----5-2-|
|------------9-5-|4-5-------------|--5-------------|5-4-5-----------| 12
|----------------|----------------|----------------|----------------|

 |   |   |   |    |   |   |   |    |   |   |   |    |   |   |   |    
|--------7-2-----|--------107---5-|--5-9-5-129-5-10|5---------------|
|--2-6-2-----6/7-|------7-----10--|7---------------|--9-5-107-4-0-5-|
|4---------------|9-5-9-----------|----------------|----------------| 16
|----------------|----------------|----------------|----------------|

 |   |   |   |    |   |   |   |    |   |   |   |    |   |   |   |    
|----------------|----------------|----------5-105-|----------------|
|0---0-----------|0-4/5---5-9-7---|7-109-5-9-------|9-5-7-9-109-7-5-|
|--4---0---------|------7-------9-|----------------|----------------| 20
|----------------|----------------|----------------|----------------|

 |   |   |   |    |   |   |   |    |   |   |   |    |   |   |   |    
|------5-0-------|----------------|----------2-7-5-|4-2-0-2-4-0---7-|
|2-5-4-----4-0---|0-1/2---2-5-4---|4-7-5---5-------|------------2---|
|--------------6-|------4-------6-|------4---------|----------------| 24
|----------------|----------------|----------------|----------------|

 |   |   |   |    |   |   |   |    |   |   |   |    |   |   |   |    
|4---5-----9-5-0-|----------------|----------5-105-|----------------|
|--7---7-4-------|4-0-5---5-9-7---|7-109-5-9-------|9-5-7-9-109-7-5-|
|----------------|------7-------9-|----------------|----------------| 28
|----------------|----------------|----------------|----------------|

 |   |   |   |    |   |   |   |    |   |   |   |    |   |   |   |    
|------3---------|--3-0---0-3-2---|2-5-3---3-7/9-5-|7---5-7-9-5-----|
|0-3-2---5-2---2-|5-----2-------4-|------5---------|--10--------7-9-|
|------------5---|----------------|----------------|----------------| 32
|----------------|----------------|----------------|----------------|

 |   |   |   |    |   |   |   |    |   |   |   |    |   |   |   |    
|--5---105-------|----------------|----0-2p0-------|----0-2p0-------|
|10--9-----9-5-0-|----------------|0-5-------5-----|0-5-------5-----|
|----------------|4-2-0-----------|------------0-4-|------------4-2-| 36
|----------------|----------------|----------------|----------------|

 |   |   |   |    |   |   |   |    |   |   |   |    |   |   |   |    
|----0-3p0-------|----0-3p0-------|----0-5p0-------|----0-5p0-------|
|0-5-------5-----|0-4-------4-----|0-3-------3-----|0-3-------3-----|
|------------2-2-|------------2/4-|------------4/7-|------------7/5-| 40
|----------------|----------------|----------------|----------------|

 |   |   |   |    |   |   |   |    |   |   |   |    |   |   |   |    
|----0-3p0-------|----0-7p0-------|----0-7p0-------|----0-100-------|
|0-2-------2-----|0-5-------5-----|0-5-------5-----|0-8-------8-----|
|------------5/9-|------------9-6-|------------6/9-|------------9-7-| 44
|----------------|----------------|----------------|----------------|

 |   |   |   |    |   |   |   |    |   |   |   |    |   |   |   |    
|----0-8p0-------|----0-8p0-------|----0-8p0-------|----0-7p0-------|
|0-8-------8-----|0-7-------7-----|0-7-------7-----|0-7-------7-----|
|------------7-7-|------------7-6-|------------6-6-|------------6-5-| 48
|----------------|----------------|----------------|----------------|

 |   |   |   |    |   |   |   |    |   |   |   |    |   |   |   |    
|----0-7p0-------|----0-5p0-------|------0-2p0-----|------0-2p0-----|
|0-5-------5-----|0-4-------4-----|--0-5-------5---|--0-5-------5---|
|------------5-5-|------------5-0-|--------------0-|4-------------4-| 52
|----------------|----------------|----------------|----------------|

 |   |   |   |    |   |   |   |    |   |   |   |    |   |   |   |    
|------0-3p0-----|------0-3p0-----|------0-5p0-----|------0-5p0-----|
|--0-5-------5---|--0-4-------4---|--0-3-------3---|--0-3-------3---|
|2-------------2-|2-------------2/|4-------------4/|7-------------7-| 56
|----------------|----------------|----------------|----------------|

 |   |   |   |    |   |   |   |    |   |   |   |    |   |   |   |    
|------0-3p0-----|------0-7p0-----|----------3-----|----------3-----|
|--0-2-------2---|--0-5-------5---|------0-2---5-2-|1-0---0-1---5-1-|
|5-------------5/|9-------------9-|5-4-5-----------|----5-----------| 60
|----------------|----------------|----------------|----------------|

 |   |   |   |    |   |   |   |    |   |   |   |    |   |   |   |    
|----------5-2---|----------7-2---|----------107---|5---5-9-5-129-5-|
|0-------0-----5-|2---2-6-2-----6-|7-------7-----10|--7-------------|
|--5-4-5---------|--4-------------|--9-5-9---------|----------------| 64
|----------------|----------------|----------------|----------------|

 |   |   |   |    |   |   |   |    |   |   |   |    |   |   |   |    
|105-------------|----------------|----------------|------0-2-0-----|
|----9-5-107-4-0-|5-0---0---------|--------0---1---|2-4-5-------5-4-|
|----------------|----4---0-------|----------------|----------------| 68
|----------------|----------------|----------------|----------------|

 |   |   |   |    |   |   |   |    |   |   |   |    |   |   |   |    
|----107-----9---|9-5-----7---7-3-|----5/7-5-3-2---|0-2-3-5-7-5-3-2-|
|2/5-----9-5---7-|----7-4---5-----|5-2-----------6-|----------------|
|----------------|----------------|----------------|----------------| 72
|----------------|----------------|----------------|----------------|

 |   |   |   |    |   |   |   |    |   |   |   |    |   |   |   |    
|0---7-3-----7/9-|9-5-----9/10107-|----101412109---|7-9-107---------|
|--2-----7-2-----|----9-5---------|9-5-----------13|--------7-5-4-0-|
|----------------|----------------|----------------|----------------| 76
|----------------|----------------|----------------|----------------|

 |   |   |   |    |   |   |   |    |   |   |   |    |   |   |   |    
|----107-----9---|9-5-----7---7-3-|----5/7-5-3-2---|0-2-3-5-7-5-3-2-|
|2/5-----9-5---7-|----7-4---5-----|5-2-----------6-|----------------|
|----------------|----------------|----------------|----------------| 80
|----------------|----------------|----------------|----------------|

 |   |   |   |    |   |   |   |    |   |   |   |    |   |   |   |    
|0---7-3-----7/9-|9-5-----9/10107-|----101412109---|7---------------|
|--2-----7-2-----|----9-5---------|9-5-----------13|----------------|
|----------------|----------------|----------------|----------------| 84
|----------------|----------------|----------------|----------------|

 |   |   |   |    |   |   |   |    |   |   |   |    |   |   |   |    
|--------3p--2---|0-2-3-7-3-2-0---|--5-3-5p2-3-0-2-|--0-2-3-2-0-----|
|----------------|--------------5-|4---------------|5-----------5-4-|
|----------------|----------------|----------------|----------------| 88
|----------------


Thile Chris Tabs & ChordsThile Chris Lyrics



Thile Chris Tabs, Tablatures, Chords, Lyrics

Buy Thile Chris CD
Thile Chris
Buy Thile Chris CD

  1. Thile Chris - Big Sam Thompson Chords
  2. Thile Chris - Bridal Veil Falls Chords
  3. Thile Chris - Club G.R.O.S.S. Chords
  4. Thile Chris - In The Arms Of The One Who Loves Me Chords
  5. Thile Chris - Jessamyn's Reel Chords
  6. Thile Chris - Laurie De' Tullins Chords
  7. Thile Chris - On Ice Chords
  8. Thile Chris - On Ice (mandolin Into Outro) Tabs
  9. Thile Chris - On Ice (outtro) Tabs
  10. Thile Chris - Raining At Sunset Chords
  11. Thile Chris - Ready For Anything Chords
  12. Thile Chris - Sinai To Canaan - Part 1 Tabs
  13. Thile Chris - Slime Rock Tabs
  14. Thile Chris - Song For A Young Queen Chords
  15. Thile Chris - Waltz For Dewayne Pomeroy Tabs
  16. Thile Chris - Waltz For Dewayne Pomeroy (mandolin) Tabs
  17. Thile Chris - When Mandolins Dream Tabs
  18. Thile Chris - You Deserve Flowers Tabs
  19. Thile Chris - You're An Angel And I'm Gonna Cry Chords



cowboylyrics.com
All lyrics are property and copyright of their owners. All lyrics provided for educational purposes only.