Third Tyme Out, Erase The Miles Tabs, Chords, Lyrics

Third Tyme Out, Erase The Miles Tabs, Chords

 SITE MENU
 Request Tabs
 Add/Correct Tabs
 DMCA Policy
 Country Sheet Music
0

BROWSE LYRICS AND TABS BY ARTIST/BAND NAME: SEARCH HERE:
A B C D E F G H I J K L M N O P Q R S T U V W X Y Z #
 

Third Tyme Out - Erase The Miles (Chords)


Third Tyme Out CD
Third Tyme Out Sheet music
Third Tyme Out Posters

ERASE THE MILES (Carl Jackson)
performed by IIIrd Tyme Out (1991, 1998)

capo 3, 6 = D

 Dsus2           Dsus2/C         G6              A
  _   _   _   _   _   _   _   _   _   _   _   _   _   _   _   _
 | | | | | | | | | | | | | | | | | | | | | | | | | | | | | | | |
|--------0------|--------0------|--------0------|---------------|
|------3---3---3|------3---3----|------3---3---3|----2---3---5--|
|----2-------2--|----2-------2-4|----0-------4--|---------------|
|--0------------|--0------------|--0------------|--2-----4---5--|
|---------------|3--------------|---------------|0-----0---0----|
|0--------------|---------------|5--------------|--------------0|



 Dsus2
  _   _   _   _
 | | | | | | | | |
|--------0-----3|2----------------------------------------------|
|------3---3----|3----------------------------------------------|
|----2-------2--|2----------------------------------------------|
|--0------------|0----------------------------------------------|
|0--------------|-----------------------------------------------|
|---------------|-----------------------------------------------|
                                                          Do you


 Dsus2           Dsus2/C         G6              G6
  _   _   _   _   _   _   _   _   _   _   _   _   _   _   _   _
 | | | | | | | | | | | | | | | | | | | | | | | | | | | | | | | |
|--------0------|--------0------|--------0------|--------0------|
|------3---3---3|------3---3----|------3---3---3|------3---3---3|
|----2-------2--|----2-------2-4|----0-------4--|----0-------4--|
|--0------------|--0------------|--0------------|--0------------|
|---------------|3--------------|---------------|---------------|
|0--------------|---------------|5--------------|5--------------|
 miss me                 in Caro-lina                     Well I


 Dsus2           Dsus2/C         A7              A7
  _   _   _   _   _   _   _   _   _   _   _   _   _   _   _   _
 | | | | | | | | | | | | | | | | | | | | | | | | | | | | | | | |
|--------0------|--------0------|--------0------|--------0------|
|------3---3---3|------3---3---3|-----23---3---2|-----23---3---3|
|----2-------2--|----2-------2--|----0-H-----0--|----0-H-----0--|
|--0------------|--0------------|--2------------|--2------------|
|---------------|---------------|0--------------|0--------------|
|0--------------|0--------------|---------------|---------------|
 miss you     in Tenn    -    es-see                      Do you


 Dsus2           Dsus2/C         G6              G6
  _   _   _   _   _   _   _   _   _   _   _   _   _   _   _   _
 | | | | | | | | | | | | | | | | | | | | | | | | | | | | | | | |
|--------0------|--------0------|--------0------|--------0------|
|------3---3---3|------3---3----|------3---3---3|------3---3---3|
|----2-------2--|----2-------2-4|----0-------4--|----0-------4--|
|--0------------|--0------------|--0------------|--0------------|
|---------------|3--------------|---------------|---------------|
|0--------------|---------------|5--------------|5--------------|
 wish I was      there        be-side you                 Well I


 Dsus2           A7              Dsus2           A
  _   _   _   _   _   _   _   _   _   _   _   _   _   _   _   _
 | | | | | | | | | | | | | | | | | | | | | | | | | | | | | | | |
|--------0------|--------0------|--------0------|---------------|
|------3---3---3|------2---2---2|------3---3---3|----2---3---5--|
|----2-------2--|----0-------0--|----2-------2--|---------------|
|--0------------|--2------------|--0------------|--2-----4---5--|
|---------------|0--------------|---------------|0-----0---0----|
|0--------------|---------------|0--------------|--------------0|
 wish you were   here       with me                            I


 Dsus2           Dsus2/C         G6              G6
  _   _   _   _   _   _   _   _   _   _   _   _   _   _   _   _
 | | | | | | | | | | | | | | | | | | | | | | | | | | | | | | | |
|--------0------|--------0------|--------0------|--------0------|
|------3---3---3|------3---3----|------3---3---3|------3---3---3|
|----2-------2--|----2-------2-4|----0-------4--|----0-------4--|
|--0------------|--0------------|--0------------|--0------------|
|---------------|3--------------|---------------|---------------|
|0--------------|---------------|5--------------|5--------------|
 know its not the ideal     situ-ation                        My


 Dsus2           Dsus2           A7              A7
  _   _   _   _   _   _   _   _   _   _   _   _   _   _   _   _
 | | | | | | | | | | | | | | | | | | | | | | | | | | | | | | | |
|--------0------|--------0------|--------0------|--------0------|
|------3---3---3|------3---3---3|-----23---3---2|-----23---3---3|
|----2-------2--|----2-------2--|----0-H-----0--|----0-H-----0--|
|--0------------|--0------------|--2------------|--2------------|
|---------------|---------------|0--------------|0--------------|
|0--------------|0--------------|---------------|---------------|
 heart's become a part    of the band                     It's a


 Dsus2           Dsus2/C         G6              G6
  _   _   _   _   _   _   _   _   _   _   _   _   _   _   _   _
 | | | | | | | | | | | | | | | | | | | | | | | | | | | | | | | |
|--------0------|--------0------|--------0------|--------0------|
|------3---3---3|------3---3----|------3---3---3|------3---3---3|
|----2-------2--|----2-------2-4|----0-------4--|----0-------4--|
|--0------------|--0------------|--0------------|--0------------|
|---------------|3--------------|---------------|---------------|
|0--------------|---------------|5--------------|5--------------|
 common hazard      in the  occu-pation            You know I'll


 Dsus2           A7              Dsus2           Dsus2/C
  _   _   _   _   _   _   _   _   _   _   _   _   _   _   _   _
 | | | | | | | | | | | | | | | | | | | | | | | | | | | | | | | |
|--------0------|--------0------|--------0------|--------0------|
|------3---3---3|------2---2---2|------3---3---3|------3---3---3|
|----2-------2--|----0-------0--|----2-------2--|----2-------2--|
|--0------------|--2------------|--0------------|--0------------|
|---------------|0--------------|---------------|3--------------|
|0--------------|---------------|0--------------|---------------|
 love you just as much      as I can                     So I'll


 G6              G6      A7      Dsus2           Dsus2
  _   _   _   _   _   _   _   _   _   _   _   _   _   _   _   _
 | | | | | | | | | | | | | | | | | | | | | | | | | | | | | | | |
|--------0------|---------------|--------0------|--------0------|
|------3---3---3|------3-------2|------3---3---3|------3---3---3|
|----0-------4--|----0-------0--|----2-------2--|----2-------2--|
|--0------------|--0-------2----|--0------------|--0------------|
|---------------|--------0------|---------------|---------------|
|5--------------|5--------------|0--------------|0--------------|
 dream     til I hear        you love me                And I'll


 Dsus2           Dsus2           A7              A7
  _   _   _   _   _   _   _   _   _   _   _   _   _   _   _   _
 | | | | | | | | | | | | | | | | | | | | | | | | | | | | | | | |
|--------0------|--------0------|--------0------|--------0------|
|------3---3---3|------3---3---3|-----23---3---2|-----23---3---0|
|----2-------2--|----2-------2--|----0-H-----0--|----0-H-----0--|
|--0------------|--0------------|--2------------|--2------------|
|---------------|---------------|0--------------|0--------------|
|0--------------|0--------------|---------------|---------------|
 hope     till I see        your smile


 G6              G6              Dsus2           Dsus2
  _   _   _   _   _   _   _   _   _   _   _   _   _   _   _   _
 | | | | | | | | | | | | | | | | | | | | | | | | | | | | | | | |
|--------0------|---------------|--------0------|--------0------|
|------3---3---3|------3-------2|------3---3---3|------3---3---3|
|----0-------4--|----0-------0--|----2-------2--|----2-------2--|
|--0------------|--0-------2----|--0------------|--0------------|
|---------------|--------0------|---------------|---------------|
|5--------------|5--------------|0--------------|0--------------|
    Wish I could hold you    for-ever                        And


 Dsus2           A7              Dsus2           Dsus2
  _   _   _   _   _   _   _   _   _   _   _   _   _   _   _   _
 | | | | | | | | | | | | | | | | | | | | | | | | | | | | | | | |
|--------0------|--------0------|--------0------|--------0------|
|------3---3---3|------2---2---2|------3---3---3|------3---3----|
|----2-------2--|----0-------0--|----2-------2--|----2----------|
|--0------------|--2------------|--0------------|--0------------|
|---------------|0--------------|---------------|------------2-0|
|0--------------|---------------|0--------------|0--------------|
 somehow   erase all         the miles


 Dsus2           Dsus2/C         G6              G6
  _   _   _   _   _   _   _   _   _   _   _   _   _   _   _   _
 | | | | | | | | | | | | | | | | | | | | | | | | | | | | | | | |
|--------0------|--------0------|--------0------|--------0------|
|------3---3---3|------3---3----|------3---3---3|------3---3---3|
|----2-------2--|----2-------2-4|----0-------4--|----0-------4--|
|--0------------|--0------------|--0------------|--0------------|
|---------------|3--------------|---------------|---------------|
|0--------------|---------------|5--------------|5--------------|



 Dsus2           Dsus2/C         A7              A7
  _   _   _   _   _   _   _   _   _   _   _   _   _   _   _   _
 | | | | | | | | | | | | | | | | | | | | | | | | | | | | | | | |
|--------0------|--------0------|--------0------|--------0------|
|------3---3---3|------3---3---3|-----23---3---2|-----23---3---3|
|----2-------2--|----2-------2--|----0-H-----0--|----0-H-----0--|
|--0------------|--0------------|--2------------|--2------------|
|---------------|---------------|0--------------|0--------------|
|0--------------|0--------------|---------------|---------------|



 Dsus2           Dsus2/C         G6              G6
  _   _   _   _   _   _   _   _   _   _   _   _   _   _   _   _
 | | | | | | | | | | | | | | | | | | | | | | | | | | | | | | | |
|--------0------|--------0------|--------0------|--------0------|
|------3---3---3|------3---3----|------3---3---3|------3---3---3|
|----2-------2--|----2-------2-4|----0-------4--|----0-------4--|
|--0------------|--0------------|--0------------|--0------------|
|---------------|3--------------|---------------|---------------|
|0--------------|---------------|5--------------|5--------------|



 Dsus2           A7              Dsus2           A
  _   _   _   _   _   _   _   _   _   _   _   _   
 | | | | | | | | | | | | | | | | | | | | | | | | |
|--------0------|---------------|--------0-----3|2--------------|
|------3---3---3|----2---3---5--|------3---3----|3--------------|
|----2-------2--|---------------|----2-------2--|2--------------|
|--0------------|--2-----4---5--|--0------------|0--------------|
|---------------|0-----0---0---0|---------------|---------------|
|0--------------|---------------|0--------------|---------------|


**********************

Do you miss me in Carolina
Well I miss you in Tennessee
Do you wish I was there beside you
Well I wish you were here with me

I know its not the ideal situation
My heart's become a part of the band
It's a common hazard in the occupation
You know I'll love you just as much as I can

So I'll dream til I hear you love me
And I'll hope til I see your smile
Wish I could hold you forever
And somehow erase all the miles

Well tommorrow its Pennsylvania
Then its on to the city of sin
I'll hold to your love and to your memory
Until I can see you again

So I'll dream til I hear you love me
And I'll hope til I see your smile
Wish I could hold you forever
And somehow erase all the miles

Wish I could hold you forever
And somehow erase all the miles


Third Tyme Out Tabs & Chords



Third Tyme Out Tabs, Tablatures, Chords, Lyrics

Buy Third Tyme Out CD
Third Tyme Out
Buy Third Tyme Out CD

  1. Third Tyme Out - Across The Miles Chords
  2. Third Tyme Out - Erase The Miles Chords
  3. Third Tyme Out - Eternity Has Begun Chords
  4. Third Tyme Out - I Feel Closer To Heaven Chords
  5. Third Tyme Out - John And Mary Chords
  6. Third Tyme Out - New Faces In The Field Chords
  7. Third Tyme Out - When Angels Carry Me Home Chords



cowboylyrics.com
All lyrics are property and copyright of their owners. All lyrics provided for educational purposes only.