Thompson Square, I Got You Tabs, Chords, Lyrics

Thompson Square, I Got You Tabs, Chords

 SITE MENU
 Request Tabs
 Add/Correct Tabs
 DMCA Policy
 Country Sheet Music
0

BROWSE LYRICS AND TABS BY ARTIST/BAND NAME: SEARCH HERE:
A B C D E F G H I J K L M N O P Q R S T U V W X Y Z #
 

Thompson Square - I Got You (Tabs)


Thompson Square CD
Thompson Square Sheet music
Thompson Square Posters
Tuning: E A D G B E

Intro: 

|----2-----5-----3------------------------------------------------------------------|
|----3-----5-----3------------------------------------------------------------------|
|----2-----2-----0------------------------------------------------------------------|
|-------------------------------------------------------------------------------------|
|-------------------------------------------------------------------------------------|
|-------------------------------------------------------------------------------------|

Intro Lead

|------3---2---0-------3---2---0---2---------------------------------------------|
|--------------------3---------------------3-----------------------------------------|
|-----------------------------------------------2-\-4--------------------------------|
|--------------------------------------------------------5---------------------------|
|-------------------------------------------------------------------------------------|
|-------------------------------------------------------------------------------------|

Verse: 2 Times

|-----2-----5-----3-----------------------------------------------------------------|
|-----3-----5-----3-----------------------------------------------------------------|
|-----2-----2-----0-----------------------------------------------------------------|
|-------------------------------------------------------------------------------------|
|-------------------------------------------------------------------------------------|
|-------------------------------------------------------------------------------------|

|----2---------------------------------------------------------------------------------|
|----3-----2----------------------------------------------------------------------------|
|----2-----2-----1---------------------------------------------------------------------|
|-----------0-----2---------------------------------------------------------------------|
|------------------2-----5--------------------------------------------------------------|
|------------------0-----3--------------------------------------------------------------|

Chorus: 3 Times

|-------------------------------------------------------------------------------------|
|-------------------------------------------------------------------------------------|
|--------------------1----------------------------------------------------------------|
|-------7-----------2----------------------------------------------------------------|
|-------5-----7-----2-----5---------------------------------------------------------|
|--------------5-----0-----3---------------------------------------------------------|

Verse: 2 Times

|-----2-----5-----3-----------------------------------------------------------------|
|-----3-----5-----3-----------------------------------------------------------------|
|-----2-----2-----0-----------------------------------------------------------------|
|-------------------------------------------------------------------------------------|
|-------------------------------------------------------------------------------------|
|-------------------------------------------------------------------------------------|

|----2---------------------------------------------------------------------------------|
|----3-----2----------------------------------------------------------------------------|
|----2-----2-----1---------------------------------------------------------------------|
|-----------0-----2---------------------------------------------------------------------|
|------------------2-----5--------------------------------------------------------------|
|------------------0-----3--------------------------------------------------------------|

Verse: 2 Times

|-----2-----5-----3-----------------------------------------------------------------|
|-----3-----5-----3-----------------------------------------------------------------|
|-----2-----2-----0-----------------------------------------------------------------|
|-------------------------------------------------------------------------------------|
|-------------------------------------------------------------------------------------|
|-------------------------------------------------------------------------------------|

|----2---------------------------------------------------------------------------------|
|----3-----2----------------------------------------------------------------------------|
|----2-----2-----1---------------------------------------------------------------------|
|-----------0-----2---------------------------------------------------------------------|
|------------------2-----5--------------------------------------------------------------|
|------------------0-----3--------------------------------------------------------------|

Chorus: 3 Times

|-------------------------------------------------------------------------------------|
|-------------------------------------------------------------------------------------|
|--------------------1----------------------------------------------------------------|
|-------7-----------2----------------------------------------------------------------|
|-------5-----7-----2-----5---------------------------------------------------------|
|--------------5-----0-----3---------------------------------------------------------|

 Bridge:

|-------------------------------------------------------------------------------------|
|-------------------------------------------------------------------------------------|
|-------------------------------------------------------------------------------------|
|-----4-----------7------------------------------------------------------------------|
|-----2-----5-----5------7----------------------------------------------------------|
|------------3------------5-----------------------------------------------------------|

Palm Muted then strummed

|-------------------------------------------------------------------------------------|
|-------------------------------------------------------------------------------------|
|--------------------1----------------------------------------------------------------|
|-------7-----------2----------------------------------------------------------------|
|-------5-----7-----2-----5---------------------------------------------------------|
|--------------5-----0-----3---------------------------------------------------------|

Outro

|-----2-----5-----3-----------------------------------------------------------------|
|-----3-----5-----3-----------------------------------------------------------------|
|-----2-----2-----0-----------------------------------------------------------------|
|-------------------------------------------------------------------------------------|
|-------------------------------------------------------------------------------------|
|-------------------------------------------------------------------------------------|


Thompson Square Tabs & ChordsThompson Square Lyrics



Thompson Square Tabs, Tablatures, Chords, Lyrics

Buy Thompson Square CD
Thompson Square
Buy Thompson Square CD

  1. Thompson Square - Are You Gonna Kiss Me Or Not Chords
  2. Thompson Square - Are You Gonna Kiss Me Or Not Tabs
  3. Thompson Square - As Bad As It Gets Chords
  4. Thompson Square - Everything I Shouldn't Be Chords
  5. Thompson Square - Getaway Car Chords
  6. Thompson Square - Glass Chords
  7. Thompson Square - Glass Intro Chords
  8. Thompson Square - I Don't Want To Miss You Chords
  9. Thompson Square - I Got You Chords
  10. Thompson Square - I Got You Tabs
  11. Thompson Square - If I Didn't Have You Chords
  12. Thompson Square - Kiss Me Or Not Chords
  13. Thompson Square - Let's Fight Chords



cowboylyrics.com
All lyrics are property and copyright of their owners. All lyrics provided for educational purposes only.