, I Would Live For You Tabs, Chords, Lyrics

, I Would Live For You Tabs, Chords

 SITE MENU
 Request Tabs
 Add/Correct Tabs
 DMCA Policy
 Country Sheet Music
0

BROWSE LYRICS AND TABS BY ARTIST/BAND NAME: SEARCH HERE:
A B C D E F G H I J K L M N O P Q R S T U V W X Y Z #
 

- I Would Live For You (Chords)


CD
 Sheet music
Posters
Tim Mensy - I Would Live For You

I use capo 1 because of the bass run in the verses,
if you want an easier intro though..transpose to capo 3.

Capo 1
         D         Bm7        G          Asus A
e--2-3-5----5----5----5--2-3-5---3--2----------
B----------3----3----3----------3--3-3s5---3-2-
G---------2----2----2----------0--0-------2-2--
D--------0----0--------------------------------
A------------------2---------------------0-----
E-----------------------------3----------------

         D        Bm7        G         Asus A
e--2-3-5----5---5----5--2-3-5---3--2-0---------
B----------3---3----3----------3--3------3-2---
G---------2---2----2----------0--0------2-2----
D--------0---0---------------------------------
A-----------------2--------------------0-------
E----------------------------3------------------

G
The hero dies, in her arms in the screen
    D           A           D
For her valiant lover she weeps
G                                        G  G/F#
Some may think, that's the ultimate price
  Em                             Asus A
but I'd do more than lay down my life


Chorus
       D         Bm7
I would live for you
     G
dedicate every breath
       A
every minute to making
       D           Bm7
your dreams come true
      G
give all that I have
        A
put my life in your hands
       Bm       C
rest assured my love
        Bm              Asus
would endure the test of time
 A           G
if you were mine
        Asus  A   D
I would live for you


To save you from danger, I'd take the hit
And die with your name on my lips
but I'd rather hold you every night while you sleep
than leave you with the memory to keep

Chorus 


Tim Mensy Tabs & Chords



Tim Mensy Tabs, Tablatures, Chords, Lyrics

Buy Tim Mensy CD
Tim Mensy
Buy Tim Mensy CD

  1. Tim Mensy - He Turned Into Me Chords
  2. Tim Mensy - I Would Live For You Chords
  3. Tim Mensy - That's Good Tabs



cowboylyrics.com
All lyrics are property and copyright of their owners. All lyrics provided for educational purposes only.