, That's Good Tabs, Chords, Lyrics

, That's Good Tabs, Chords

 SITE MENU
 Request Tabs
 Add/Correct Tabs
 DMCA Policy
 Country Sheet Music
0

BROWSE LYRICS AND TABS BY ARTIST/BAND NAME: SEARCH HERE:
A B C D E F G H I J K L M N O P Q R S T U V W X Y Z #
 

- That's Good (Tabs)


CD
 Sheet music
Posters
Tim Mensy  -  That's Good (tab)



C(add9)     =   x32033                               Am7     =   x02010

Dm          =   xx0231                               G       =   320033

Edim        =   xx2323                               Dm7     =   xx0211

F#          =   244322                               F       =   x33211

Ebdim       =   xx1212                               C       =   x32010

Cmaj7       =   x32000                               C6      =   x32210

C/G         =   332010                               Db7     =   x4342x

D           =   xx0232                               D7      =   xx0212

G+          =   xx5443                               C6/9    =   x32233


*******************************************************************************



C(add9)  Am7  Dm  G  C(add9)  Edim  Dm  G
INTRO



C(add9) Am7       Dm       G         C(add9)            Am7  
 Last   night she told him they were through, (that's bad)
  Dm            G
No, that's good.
        C(add9)  Edim      Dm    G      C(add9)  Am7  Dm  G
Now the coast is clear for me to make a move.
            C(add9)    Am7    Dm      G        C(add9)          Am7  
Thought I'd walk right up and ask her if she'd dance, (that's good)
  Dm           G
No, that's bad.
  C(add9)     Edim         Dm          G         C(add9) Am7    Dm  G  
I tripped and knocked that drink right outta her hand.   (oh no)
       Dm7            G
Then I fumbled like a fool, (that's bad)
      Dm7                G
Guess she thought it was cute, (that's pretty good)
          Dm7                      G
She said 'Is it safe to dance with you?'. (that's good)
         C(add9)      Am7  Dm  G
Yeah man, that's good.



       C(add9) Am7   Dm     G         C(add9)       Am7
Right away she knew I had two left feet, (that's bad) (*W/RIFF 1*)
  Dm            G
No, that's good.
    C(add9)     Edim       Dm          G           C(add9)  Am7  Dm  G
She smiled and said 'Don't worry, I'll follow your lead'. (*W/ RIFF 2*)
          Dm7              G
We didn't have too much to say, (that's bad)
       Dm7               G
No, we danced the night away, (that's good) (*W/RIFF 3*)
         Dm7                 G
And that smile stayed on her face, (that's good)
     C(add9)        Am7  Dm  G  F#
Yeah man,    that's good.  (*W/ RIFF 4*)



F                     Ebdim
 What's good? (what's good)

What's bad? (what's bad)
C              Cmaj7   C6  C/G  Db7
Sometimes it's hard to say.
D                D7
 Just when (just when)

It looks wrong,
   G                          G+  
It turns around and goes your way.



Dm7  G  Dm7  G  Dm7  G  C(add9)  Am7  Dm  G
INSTRUMENTAL


 
          C(add9)  Am7      Dm    G       C(add9)            Am7  
She said 'After  this dance, I've got to go', (Oh no, that's bad)
  Dm            G
No, that's good.
          C(add9) Edim       Dm      G        C(add9)  Am7  Dm  G
'Cause we walked across that parkin' lot real slow.
Dm7               G
One soft kiss goodbye, (that's good)
          Dm7                  G
Thought I saw a twinkle in her eye, (that's real good)
          Dm7              G 
She said 'Call me tomorrow night'. (that's good)
                 C(add9)  Am7  Dm  
Yeah man, that's good.
  G        C(add9)   Am7  Dm
MMMmmmm, that's good.
            G      C(add9)  Am7  Dm
That's unmistakeably good.
     G           C(add9)  F  G  C6/9
Yeah man, that's good.



*******************************************************************************

/   =   slide up                                         \   =   slide down

p   =   pulloff                                          h   =   hammer-on

*******************************************************************************



INTRO


         C(add9) Am7 Dm           G C(add9) Edim Dm       G        C(add9) 

E----------------------------------------8----------------------------|
B--5-6-7-8-----------8-6-4/5-6-4/5----------8----8-6-4/5-6------------|
G-------------------5-------------7--------5--------------8\7p5-7-5---|
D--------------5-7------------------------5-----5----------------7----|
A---------------------------------------------------------------------|
E---------------------------------------------------------------------|



*RIFF 1*
After ('I had two left feet')


 C(add9) Am7 Dm     G    C(add9) 

E-------5--------------------|
B----6/8-8---6-4/5-----3-1---|
G----------------------------|
D-----------5-----5-4-3------|
A----------------------------|
E----------------------------|



*RIFF 2* 
After ('I'll follow you're lead')


 C(add9)     Am7        Dm     G

E----12\--8\--5\--3\--0-------------|
B--13--\-8-\-5-\-3-\-1--3/5-----3---|
G-----------------------------------|
D--------------------------5-4-3----|
A-----------------------------------|
E-----------------------------------|



*RIFF 3*
After ('We danced the night away')


   G

E------------|
B--3/5-4-3---|
G------------|
D--3/5-4-3---|
A------------|
E------------|



*RIFF 4*
End of 2nd Verse


 C(add9) Am7     Dm     G  F#

E--12-10--8\-------7/-8-7---|
B--13-12-10\-6/8-6-9/10-8---|
G------------7/9-7----------|
D---------------------------|
A---------------------------|
E---------------------------|



INSTRUMENTAL


  Dm7        G        Dm7                                   G                      Dm7

                       rake
E--------------------------12--------------------------------------------------------|
B--------5-6-8-4/5-------13--15-13-12-13-15-11/12------------------------------------|
G-------5---------5-7--14------------------------12-----------------12/14-12h14-12---|
D--7---7-------------------------------------------12-15-12-13/14-10-----------------|
A---5-8------------------------------------------------------------------------------|
E------------------------------------------------------------------------------------|





Tim Mensy Tabs & Chords



Tim Mensy Tabs, Tablatures, Chords, Lyrics

Buy Tim Mensy CD
Tim Mensy
Buy Tim Mensy CD

  1. Tim Mensy - He Turned Into Me Chords
  2. Tim Mensy - I Would Live For You Chords
  3. Tim Mensy - That's Good Tabs



cowboylyrics.com
All lyrics are property and copyright of their owners. All lyrics provided for educational purposes only.