Trent Tomlinson, A Good Run (intro/lead) Tabs, Chords, Lyrics

Trent Tomlinson, A Good Run (intro/lead) Tabs, Chords

 SITE MENU
 Request Tabs
 Add/Correct Tabs
 DMCA Policy
 Country Sheet Music
0

BROWSE LYRICS AND TABS BY ARTIST/BAND NAME: SEARCH HERE:
A B C D E F G H I J K L M N O P Q R S T U V W X Y Z #
 

Trent Tomlinson - A Good Run (intro/lead) (Tabs)


Trent Tomlinson CD
Trent Tomlinson Sheet music
Trent Tomlinson Posters
Artist: Trent Tomlinson
04/18/2006br>hr>
Comments and Ratings are always appreciated!
br>hr>

b>(capo I)/b> All positions relative to capo.

(Intro into Verse 1)

E |-0h2p0-----------------------------------------0-------------|
B |-------3-0h3--3---2--2---3-3--2--2----------3----3-----3-----|
G |--------------2---2--2---2-2--2--2--------2--------0h2-------|
D |-----------------------------------------0-------------------|
A |-------------------------------------0h2-------------------0-|
E |-------------------------------------------------------------|

                  It was perfect timin'   Both of us findin' what we 
E |-0h2p0----------------------------------------------------|
B |-------3-0h3--3---2--2---3--2--2-----3---2--2---3-2--2----|
G |--------------2---2--2---2--2--2-----2---2--2---2-2--2----|
D |----------------------------------------------------------|
A |-------------0----------0---------2p0----------0----------|
E |----------------------------------------------------------|
   
    we needed.
E |------------0--------------|
B |----------3----3-----3-----|
G |--------2--------0h2-------|
D |------0--------------------|
A |--0h2-------------------0--|
E |---------------------------|

                  Blind love was drivin  An' we both went divin' off 
E |-0h2p0----------------------------------------------------|
B |-------3-0h3--3---2--2---3--2--2-----3---2--2---3-2--2----|
G |--------------2---2--2---2--2--2-----2---2--2---2-2--2----|
D |----------------------------------------------------------|
A |-------------0----------0---------2p0----------0----------|
E |----------------------------------------------------------|
 
 the deep end.                     But girl now lookin back   Went way
E |--------0----------------------------------------------0----------|
B |-----------3---3--------3-------------3-------------2-------------|
G |------2------2--------2---2---------2---2---------2------2--------|
D |----0---------------0-------0-----0-------0-----0-----------------|
A |--0---------------0-------------0-------------0-------------------|
E |------------------------------------------------------------------|

too far just a little to fast. And that sure was fun. Oh, but now its done
E |-------0----------------|-------------------------|----------------|
B |----------3-------3-----|----------2----3---2-3---|----------3-----|
G |-----2----------2----2--|--------2----2---2-------|--------2---2---|
D |---0----------0---------|------0------------------|------0---------|
A |-0----------0-----------|----0--------------------|----0---------0-|
E |------------------------|-------------------------|----------------|


Tomlinson Trent Tabs & ChordsTomlinson Trent Lyrics



Tomlinson Trent Tabs, Tablatures, Chords, Lyrics

Buy Tomlinson Trent CD
Tomlinson Trent
Buy Tomlinson Trent CD

  1. Tomlinson Trent - A Good Run (chord/lead) Tabs
  2. Tomlinson Trent - A Good Run (intro/lead) Tabs
  3. Tomlinson Trent - Angels Like Her Chords
  4. Tomlinson Trent - Cheatin' On My Honky Tonk Chords
  5. Tomlinson Trent - Country Is My Rock Chords
  6. Tomlinson Trent - Drunker Than Me Chords
  7. Tomlinson Trent - Henry Cartwright's Produce Stand Chords
  8. Tomlinson Trent - Hey Batter Batter Chords
  9. Tomlinson Trent - I Was Gonna Leave Tomorrow Anyway Chords
  10. Tomlinson Trent - Just Might Have Her Radio On Chords
  11. Tomlinson Trent - One Wing In The Fire Chords
  12. Tomlinson Trent - One Wing in the Fire 2 Chords
  13. Tomlinson Trent - That's How It Still Oughta Be Chords
  14. Tomlinson Trent - Thats Whats Workin Right Now Chords
  15. Tomlinson Trent - The Bottle Chords
  16. Tomlinson Trent - The Next Time Chords



cowboylyrics.com
All lyrics are property and copyright of their owners. All lyrics provided for educational purposes only.