, Briskie Tabs, Chords, Lyrics

, Briskie Tabs, Chords

 SITE MENU
 Request Tabs
 Add/Correct Tabs
 DMCA Policy
 Country Sheet Music
0

BROWSE LYRICS AND TABS BY ARTIST/BAND NAME: SEARCH HERE:
A B C D E F G H I J K L M N O P Q R S T U V W X Y Z #
 

- Briskie (Tabs)


CD
 Sheet music
Posters
Biskie
Tommy Emmanuel





                                                          
E||------3/-4--0-----4--------|--------3-----0--3-----0--|
B||------2--3--0--2/-3--0--1--|--2--------2--------------|
G||---------------------------|-----0--------------------|
D||---------------------------|--------2-----------2-----|
A||---------------------------|--0-----------0-----------|
E||---0-----------------------|--------------------------|


                                                                              
-----3/-4--0-----4--------|-----0-----------------|-----3/-4--0-----4--------|
-----2--3--0--2/-3-----0--|-----------------------|-----2--3--0--2/-3--0--1--|
--------------------------|-----------------------|--------------------------|
--------------------0-----|-----------------------|--------------------------|
--------------------------|--4--------------------|--------------------------|
--0-----------------------|--------2----5----3----|--0-----------------------|


                                                    
--------3-----0--3-----0~-|-------------------3~---|
--2--------2-----------3~-|-------------------0~---|
-----0-----------------3~-|-------------3-----3~---|
--------2-----------2-----|-----2----------2-------|
--0-----------0-----------|------------------------|
--------------------------|--3-----3---------------|


                                                                                
-----------3-----2-----0---||--------2--0-----------5--|-----5-------5----5----|
-----------0-----0-----0---||--------0--0-----0-----1--|-----2-------3----4----|
-----3-----3-----2-----1--*||-----3--2--1--------------|-----------------------|
--------2-----------1-----*||--------1-----------0-----|--1-----2----3----4----|
---------------------------||--------------------------|-----------------------|
--3-----------3------------||--3-----------0-----------|-----------------------|


                                                                                
--5--------7--------------|-----0--------0--------0--|--------0--------0-------|
-----8--6--------5-----5--|--9-----9--8-----9--8-----|--9--8-----9--8----------|
--------------------------|--------7--------7--------|--7--------7-------------|
--------5-----------5-----|--------9-----------9-----|--------9-----------9----|
--0-----------0-----------|--------------------------|-------------------------|
--------------------------|--0-----------0-----------|--0-----------0----------|


                                                                              
-----5-------5----5----|--5--------7-----------4--|-----------------4-----2--|
-----1/-2----3----4----|-----8--5--------5--------|-----7-----6--------------|
-----------------------|--------------------------|--------------------------|
-----1/-2----3----4----|--------5-----------5-----|--------------------6-----|
--0--------------------|--0-----------0-----------|--------6-----4-----------|
-----------------------|--------------------------|--4-----------------------|


                                                      
-----------------2-----0--|-----3/-4--0-----4--------|
-----5-----4--------------|-----2--3--0--2/-3--0--1--|
--------------------------|--------------------------|
--------------------4-----|--------------------------|
--------4-----2-----------|--------------------------|
--2-----------------------|--0-----------------------|


                                                                              
--------3-----0--3-----0--|-----3/-4--0-----4--------|-----0-----------------|
--2--------2--------------|-----2--3--0--2/-3-----0--|-----------------------|
-----0--------------------|--------------------------|-----------------------|
--------2-----------2-----|--------------------0-----|-----------------------|
--0-----------0-----------|--------------------------|--4--------------------|
--------------------------|--0-----------------------|--------2----5----3----|


                                                                               
-----3/-4--0-----4--------|--------3-----0--3-----0~-|-------------------3~---|
-----2--3--0--2/-3--0--1--|--2--------2-----------3~-|-------------------0~---|
--------------------------|-----0-----------------3~-|-------------3-----3~---|
--------------------------|--------2-----------2-----|-----2----------2-------|
--------------------------|--0-----------0-----------|------------------------|
--0-----------------------|--------------------------|--3-----3---------------|


                                                                       
----------2----0-------|--1----0---------1----|-------0---------------|
----------0----0-------|--3----3----3---------|-----------------3-----|
-------3--2----1-------|--3---------3---------|-----------------3-----|
----------1------------|--0----0---------0----|-------0------------0--|
-----------------------|----------------------|-----------------------|
--3---------------0----|--3---------3---------|--3---------3----------|


                                                                       
--1----0---------1----|-----0------------1-----|--1----0---------1----|
------------3---------|--------3---------------|--3---------3---------|
------------2---------|--------2---------------|--3---------3---------|
-------3---------3----|-----3---------------3--|-------0---------0----|
----------------------|------------------------|----------------------|
--1---------1---------|--1----------1----------|--3---------3---------|


                                                                 
-------0--------1-------|---------------------------------------|
----------3-------------|---------------------------------------|
------------------------|--------10--------9--------8--------7--|
-------0-----------0----|-----9---------8--------7--------6-----|
------------------------|--8---------7--------6--------5--------|
--3----------3----------|---------------------------------------|


                                                              
--------------------------------------|--1----0---------1----|
--------------------------------------|--3----3----3---------|
--------6--------3--------3--------4--|--3---------3---------|
-----5--------2--------2--------3-----|--0----0---------0----|
--4--------0--------1--------2--------|----------------------|
--------------------------------------|--3---------3---------|


                                                                               
-----0--------1--0-----1~-|-------4b----1----------|--1--------1--------------|
-----3-----3--3--------3~-|----------------3/---1--|-----4b----------1--------|
-----------------------2~-|----------------2-------|--------2-----------2--6/-|
--------0-----------0-----|----------3-------------|--3-----------3-----------|
--------------------------|------------------------|--------------------------|
--3-----------3-----------|--1---------------------|--------------------------|


                                                                             
-------------------------|------------6-------4b-|-----3--1-----1-----------|
-----6--------6----------|-------6----4----------|-----------4--1-----------|
--7-----6--6-----7--5----|-----------------------|-----------------4--3--1--|
-------------------------|-----------------------|--------------------------|
-------------------------|-----------------5-----|--------------------------|
--6-----------7----------|--8--------------------|--3-----------------------|


                                                                           
------------------------|--5---------5----5----|--5--------7--------------|
------------------------|--1/---2----3----4----|-----8--5--------5-----8--|
--2---------------------|------


Tommy Emmanuel Tabs & Chords



Tommy Emmanuel Tabs, Tablatures, Chords, Lyrics

Buy Tommy Emmanuel CD
Tommy Emmanuel
Buy Tommy Emmanuel CD

  1. Tommy Emmanuel - Briskie Tabs
  2. Tommy Emmanuel - Drivetime Tabs
  3. Tommy Emmanuel - I Have Always Thought Of You Tabs
  4. Tommy Emmanuel - Ol' Brother Hubbard Tabs
  5. Tommy Emmanuel - Stay Close To Me Tabs



cowboylyrics.com
All lyrics are property and copyright of their owners. All lyrics provided for educational purposes only.