, Drivetime Tabs, Chords, Lyrics

, Drivetime Tabs, Chords

 SITE MENU
 Request Tabs
 Add/Correct Tabs
 DMCA Policy
 Country Sheet Music
0

BROWSE LYRICS AND TABS BY ARTIST/BAND NAME: SEARCH HERE:
A B C D E F G H I J K L M N O P Q R S T U V W X Y Z #
 

- Drivetime (Tabs)


CD
 Sheet music
Posters
Drivetime
Tommy Emmanuel





                                                          
E||---------------------0-----|-----------------4h-2--0~-|
B||------------------------4--|--------------------------|
G||------------1--------------|--------4--3--2-----------|
D||---------4--------2--------|-----2--------2-----------|
A||------2--------4-----------|--------------------------|
E||---0-----------------------|--2-----------------------|


                                                                                
--------------------0-----|-----------------4h-2--7--|----------------------0~-|
-----------------------4--|--------------2-----------|-----4--4--4-------4-----|
-----------1--------------|--------4/-3--2-----------|-----4--4--4----4--------|
--------4--------2--------|-----2--------2-----------|-----4--4--4-------------|
-----2--------4-----------|--------------2-----------|--------6----------------|
--0-----------------------|--2-----------------------|--4----------------------|


                                                                            
-----------0----7----7--|-----5----5/-4----2----|-----------------2--------|
------------------------|-----------------------|--------5--2--4-----0-----|
--------4-------8----8--|-----6----6/-4----2----|--------4--2--------------|
-----6------------------|-----------------------|-----------2--------------|
--4---------------------|--0--------------------|-----4-----2--------------|
------------------------|-------------4---------|--2--------------------0--|


                                                                                
-----------------0--------|-----------------4h-2--7--|-----------7----------0--|
--------------------4-----|--------------------------|-----4--4--4-------4-----|
--------1-----------------|-----4--3--2--------------|-----4--4--4----4--------|
-----4--------2-----------|--2--------2--------------|-----4--4--4-------------|
--2--------4--------------|--------------2-----------|--------6----------------|
-----------------------2--|--------------------------|--4----------------------|


                                                                              
--------------0----7--7--|-----9--5--------4--4----|--5--4-------------------|
-----------4-------------|-------------------------|-----------4-----5----5--|
--------4----------8--8--|-----9--6-----------5----|--------5--------5----4--|
-----6-------------------|--------------7----------|-----4----------------6--|
--4----------------------|--0--------0-------------|--------------6----------|
-------------------------|--------------------4----|-------------------------|


                                                                              
---------------------------|--9----7--------0-------|------0--------------5--|
-----8/-7--5--7----5-------|--7-------8--7-----0----|---------------5h-7-----|
--------------4----4-------|--7----------------6----|---------------4--------|
--------------5----5-------|--7----------------7----|------------6-----------|
--4---------------------4--|--7----------------0----|------------------------|
---------------------------|--0---------------------|---------4--------------|


                                                                                
--2--4--2--------------0---||--5--4------------------|-------------------------|
--2--------5-----2--4------||--------7-----5----5----|-----8--7--5--7--5--4----|
--2--------------2--------*||--------------5----4----|--------------4----------|
--------4-----------------*||-----4-------------6----|-----------------4--4----|
--------------2------------||-----------6------------|--4-----------5--5--4----|
--2------------------------||------------------------|-------------------------|


                                                                             
--9----7--------0-------|------0--------------5--|--2--4--2--------------0--|
--7-------8--7-----0----|---------------5h-7-----|--2--------5-----2--4-----|
--7----------------6----|---------------4--------|--2--------------2--------|
--7----------------7----|------------6-----------|--------4-----------------|
--7----------------0----|------------------------|--------------2-----------|
--0---------------------|---------4--------------|--2-----------------------|


                                                      
-----------------0--------|-----------------4--2--0--|
--------------------4-----|--------------------------|
--------1-----------------|-----4--3--2--------------|
-----4--------2-----------|--2-----------------------|
-----------4--------------|--------------2-----------|
--0--------------------2--|--------------------------|


                                                         
-----------------0--------|-----------7-9-9--9---9-7-9--|
--------------------4-----|-----------------------------|
--------1-----------------|-----4--3--8-9-9--9---9-8-9--|
-----4--------2-----------|--2--------------------------|
-----------4--------------|--------------------0--------|
--0--------------------2--|-----------------------------|


                                                      
-----12--7--9-----7--5--7--|--------------4----------|
-----9---7--------------4--|--------------4--4--5----|
---------------9--8--6-----|-----------4-----4--6----|
---------------------------|--------4-----------6----|
--0------------------------|-----6-------------------|
---------------------------|--4----------------------|


                                                                                
--------------------------|--7/-9--9--9-----9/-7--9--|-----12--9----7--5--4----|
--------5--4--------4-----|--------------------------|-----9-------------------|
--------6--4-----4--------|--8/-9--9--9-----9/-8--9--|---------9----8--6--5----|
-----6-----4--4-----------|--------------------------|-------------------------|
--4--------2-----------0--|--------------0-----------|--0----------------------|
--------------------------|--------------------------|-------------------------|


                                                                              
--------------------4-------|-----------------4----4--|-----------2----------|
-----------------4-------7--|--5--------7-----5----2--|-----------2----------|
--------------5-------------|--4-----4--4-----4----4--|--------4--3----------|
-----4--5--7----------------|--6--6-----6-------------|-----2----------------|
--6-------------------------|--4-----------4----------|----------------------|
----------------------------|-------------------------|--2-------------------|


                                                                              
--6/-7/-6--9~---------0--|-----------0--------------|-----------3--4----6----|
--9----------------7-----|--------------4--------4--|------------------------|
--9----------------------|--------6-----------6-----|--------6---------------|
-------------------------|-----6-----------6--------|-----5------------------|
--9-------------9--------|--------------------------|--6---------------------|
-------------------------|--6-----------------------|------------------------|


                                                                           
--7----------7--------0--|-----------0--7----7----|-------5--5----4--2----|
-------------4-----4-----|------------------------|-----------------------|
----------4-----4--------|--------4-----8----8----|-------6--6----4--2----|
-------4-----------------|-----6------------------|-----------------------|
-------------------------|--4---------------------|--0--------------------|
--4----------------------|------------------------|---------------4-------|


                                                                                
-------------------2-----|----


Tommy Emmanuel Tabs & Chords



Tommy Emmanuel Tabs, Tablatures, Chords, Lyrics

Buy Tommy Emmanuel CD
Tommy Emmanuel
Buy Tommy Emmanuel CD

  1. Tommy Emmanuel - Briskie Tabs
  2. Tommy Emmanuel - Drivetime Tabs
  3. Tommy Emmanuel - I Have Always Thought Of You Tabs
  4. Tommy Emmanuel - Ol' Brother Hubbard Tabs
  5. Tommy Emmanuel - Stay Close To Me Tabs



cowboylyrics.com
All lyrics are property and copyright of their owners. All lyrics provided for educational purposes only.