, I Have Always Thought Of You Tabs, Chords, Lyrics

, I Have Always Thought Of You Tabs, Chords

 SITE MENU
 Request Tabs
 Add/Correct Tabs
 DMCA Policy
 Country Sheet Music
0

BROWSE LYRICS AND TABS BY ARTIST/BAND NAME: SEARCH HERE:
A B C D E F G H I J K L M N O P Q R S T U V W X Y Z #
 

- I Have Always Thought Of You (Tabs)


CD
 Sheet music
Posters
I Have Always Thought Of You
Tommy Emmanuel


                                                            
E||---------------------------|---------------------------||
B||---------3--------3--------|--3--------3--------3------||
G||*-----2--------2--------2--|--------2--------2-----2--*||
D||*-----------0--------0-----|-----0--------0-----------*||
A||---------------------------|---------------------------||
D||---0-----------------------|---------------------------||


                                                      
--------------------------|-----------5--------------|
--------3--------3--------|--3-----------------3-----|
-----2--------2--------2--|--------2--------2-----2--|
-----------0--------0-----|-----0--------0-----------|
--------------------------|--------------------------|
--0-----------------------|--------------------------|


                                                      
--------------------------|--------------------------|
--------------3--------3--|--------3-----------------|
--------0h-2--------------|-----------------2--------|
-----0--------------0-----|-----0--------0--------0--|
--------------------------|--------------------2-----|
--0--------------0--------|--0--------0--------------|


                                                      
--------------------------|--------------------------|
--------------3--------3--|--------3--------------3--|
--------2--------2--------|--2--------2-----0h-2-----|
-----0-----0--------0-----|-----0--------0-----------|
--------------------------|--------------------------|
--0-----------------------|--------------------------|


                                                                                
--------------------------|--------------------------|--------------5-------5--|
--------3--------3--------|-----------3-----------3--|--------3--------3-------|
-----2--------2-----------|-----2--------2-----2-----|-----------6----------5--|
-----------0-----------0--|--------0--------0--------|-----0-------------------|
--------------------2-----|--------------------------|-------------------------|
--0-----------------------|--0-----------------------|--0----------------------|


                                                                              
----3--3-------3--3----|----------0----2-----3--|----3--2--0--2--------------|
------------3--3--3----|-------3-------------3--|-------------------2-----3--|
-------4----4--4--4----|-------3-------------2--|----------------x--2--x--4--|
-------0---------------|--0------------------0--|----------------x-----x-----|
-----------------------|--0---------------0-----|-------------------0-----2--|
-----------------------|--0---------------------|----------------------------|


                                                                             
------------------0--2--|--2-----0----------------|----------3--------------|
----------3-------------|-------------3--------3--|-------------3-----------|
-------4----------------|-------------------4-----|-------5--------5--------|
----4-------------------|-----0-------------------|----5--------------5-----|
-------------0----------|----------------------3--|----------------------3--|
------------------------|--2-------------2--------|-------------------------|


                                                      
--2-----0-----------------|--------------------------|
-----------3--------2--3--|--------3--------3--------|
-----0--------------------|-----2--------2--------2--|
-----------------2--------|-----------0--------0-----|
--2-----------0-----------|--------------------------|
--------------------------|--0-----------------------|


                                                      
--------------------------|--------------------------|
--3--------3--------------|--------3--------3--------|
--------2--------2--------|-----2--------2--------2--|
-----0--------0--------0--|-----------0--------0-----|
--------------------2-----|--------------------------|
--------------------------|--0-----------------------|


                                                                             
--------------------------|--------------5-------5--|----3--3-------3--3----|
--3--------3--------2-----|--------3--------3-------|------------3--3--3----|
--------2--------2-----3--|-----------6----------5--|-------4----4--4--4----|
-----0--------0-----------|-----0-------------------|-------0---------------|
--------------------------|-------------------------|-----------------------|
--------------------------|--0----------------------|-----------------------|


                                                                               
----------0----2-----3--|----3--2--0--2--------------|------------------0--2--|
-------3-------------3--|-------------------2-----3--|----------3-------------|
-------3-------------2--|----------------x--2--x--4--|-------4----------------|
--0------------------0--|----------------x-----x-----|----4-------------------|
--0---------------0-----|-------------------0-----2--|-------------0----------|
--0---------------------|----------------------------|------------------------|


                                                                               
--2-----0----------------|----------3-----------3--|-----------3--------------|
-------------3--------3--|-------------3-----3-----|--3-----3-----3-----------|
-------------------4-----|-------5--------5--------|-----5-----------5--------|
-----0-------------------|----5--------------------|--------------------5-----|
----------------------3--|-------------------------|-----------------------3--|
--2-------------2--------|-------------------------|--------------------------|


                                                                            
--------------5-------5--|----3--6--5--3--3----3--|--------0----2-----3----|
--------3--------3-------|----------------3----3--|-----3-------------3----|
-----------3----------5--|-------4--------4----4--|-----3-------------2----|
-----0-------------------|-------0--------0-------|--0----------------0----|
-------------------------|------------------------|--0-------------0-------|
--0----------------------|------------------------|--0---------------------|


                                                                                
----3--2--0--2--------------|------------------0--2--|--2-----0----------------|
-------------------2-----3--|----------3-------------|-----------3----------3--|
----------------x--2--x--4--|-------4----------------|-----------------4-------|
----------------x-----x-----|----4-------------------|-----0-------------------|
-------------------0-----2--|-------------0----------|----------------------3--|
----------------------------|------------------------|--2-----------2----------|


                                                     
----------3--------------|--2-----0-----------------|
-------------3-----------|-----------3--------2--3--|
-------5--------5--------|-----0--------------------|
----5--------------5-----|-----------------2--------|
----------------------3--|--2-----------0-----------|
-------------------------|--------------------------|


                                                         
-----------------------------|--------------------------|
-----------------------------|--------0--------2h-3--3--|
-----2h-0-----------------2--|--0--------2--------------|
-----------4--2h-0h-2--4-----|-----0--------------------|
-----------------------------|--------------0-----------|
--0--------------------------|--5-----------------------|


                                                         
-----------------------------|--------------------------|
-----------------------------|--------0--------2h-3--3--|
-----2h-0--------------


Tommy Emmanuel Tabs & Chords



Tommy Emmanuel Tabs, Tablatures, Chords, Lyrics

Buy Tommy Emmanuel CD
Tommy Emmanuel
Buy Tommy Emmanuel CD

  1. Tommy Emmanuel - Briskie Tabs
  2. Tommy Emmanuel - Drivetime Tabs
  3. Tommy Emmanuel - I Have Always Thought Of You Tabs
  4. Tommy Emmanuel - Ol' Brother Hubbard Tabs
  5. Tommy Emmanuel - Stay Close To Me Tabs



cowboylyrics.com
All lyrics are property and copyright of their owners. All lyrics provided for educational purposes only.