, Stay Close To Me Tabs, Chords, Lyrics

, Stay Close To Me Tabs, Chords

 SITE MENU
 Request Tabs
 Add/Correct Tabs
 DMCA Policy
 Country Sheet Music
0

BROWSE LYRICS AND TABS BY ARTIST/BAND NAME: SEARCH HERE:
A B C D E F G H I J K L M N O P Q R S T U V W X Y Z #
 

- Stay Close To Me (Tabs)


CD
 Sheet music
Posters
Stay Close To Me
Tommy Emmanuel




                                                         
E||--0--------0-----------0--|-----------0-----------0--|
B||-----------0--0-----------|-----------0--------------|
G||--------2--2--2-----2-----|-----------2--------2-----|
D||-----2-----------2--------|--------2--------2--------|
A||--0-----------------------|-----4--------------------|
E||--------------------------|--2-----------2-----------|


                                                       
---------------------------|--------------------------|
-----3-----3--------0-2-3--|-----------3--------2--2--|
---------------------------|--------3-----------------|
--------0-----4------------|-----2-----------2--------|
--2--------------5---------|--------------------------|
---------------------------|--2-----------2-----------|


                                                          
----------------------------|-----------------2-3-2-0-0--|
-----3/2-0--------0-2----0--|----------------------------|
------------2---------2-----|-----2~----1----------------|
------------1---------------|-----0~---------------------|
--2---------2---------------|----------------------------|
---------------2------------|--0-----0-----0-------------|


                                                      
-----------------2---------|-----2-----------2-------|
-----------5--------5------|--------5--------5-------|
--------2--2-----------2---|-----------2-----2-------|
-----2-----4--4--------2---|-----------2--2----------|
--0--------2-----------2h4-|--4--------5-------------|
---------------------------|--------------------0----|


                                                      
--0--------0-----------0--|-----------0-----------0--|
-----------0--0-----------|-----------0--------------|
--------2--2--2-----2-----|-----------2--------2-----|
-----2-----------2--------|--------2--------2--------|
--0-----------------------|-----4--------------------|
--------------------------|--2-----------2-----------|


                                                         
---------------------------|----------------------------|
-----3-----3--------0h2-3--|-----------3--------0-2-0-2-|
---------------------------|--------3-------------------|
--------0-----0--0---------|-----2-----------2----------|
--2------------------------|----------------------------|
---------------------------|--2-----------2-------------|


                                                         
----------------------------|------------------0--------|
-----3-2-0--------0-2----0--|---------------------2-----|
------------2---------2-----|-----------2/1----------4--|
------------1---------------|--------0------------------|
--2---------2---------------|-----2---------------------|
---------------2------------|--0------------0-----------|


                                                                                
-----------------------0--|-----------4----5--7~---|--------------7-----7h5-4~-|
-----------2-----2--2-----|--------0--5----7-------|-----9--9--9--9-----7------|
--------4--2-----2--2-----|--------2---------------|-----9--9--9---------------|
--3-----3--3-----3--------|-----2------------------|--0--------------0---------|
-----0--------0-----------|--0---------------------|---------------------------|
--------------------------|------------------------|---------------------------|


                                                        
-----------4-----2--4--4h5-|----------5~----2-4-5-4----|
-----5--5--5--5------------|-----2------------------5--|
-----4--4-----4------------|-----2---------------------|
--0------------------------|---------------------------|
---------------------------|---------------------------|
---------------------------|--2----------2-------------|


                                                          
----------------------------|----------------------------|
-----------5---------5--5h7~|-------------------7-7/9----|
--------4--4--4--4h6--------|-----4--4--------4----------|
-----6-----6--6-------------|-----4--4------4------------|
--4-------------------------|-------------6--------------|
----------------------------|--4--------4----------------|


                                                               
------------------------------|-------------------------------|
-----------------------9-9/10-|--------------7-9----10--10-12-|
--------------6~-----6--------|-----------7-------------------|
-----6--6----------6----------|--------7----------------10-12-|
-----8--8--------8------------|-----9-------------------------|
--6--------6------------------|--7---------------7------------|


                                                        
-----9-------------12---------|------------------------|
--------12--10---------10-----|--9----9/-10--9----7----|
------------------------------|-------9------9----7----|
------------11----------------|--9----9/-11--9----7----|
------------------------------|------------------------|
--0-------------0----------0--|-------0----------------|


                                                      
--0--------0~----------0--|-----------0-----------0--|
-----------0~-0-----------|-----------0--------------|
-----------2~-2-----2-----|-----------2--------2-----|
--------2--------2--------|--------2--------2--------|
--0--2--------------------|-----4--------------------|
--------------------------|--2-----------2-----------|


                                                        
---------------------------|---------------------------|
-----3-----3--------0h2-3--|--------3--3~-------3--0h2-|
--------2-----2------------|--------3--3~--------------|
--------0-----0--0---------|-----2--2--------2---------|
--2------------------------|---------------------------|
---------------------------|--2-----------2------------|


                                                          
---------------------------|------------------2-3-2-0-0--|
-----3h-2--0--------0h2-0--|-----------------------------|
--------------2------------|-----------2-1---------------|
--------------1------------|--------0--------------------|
--2-----------2------------|-----2-----------------------|
-----------------2---------|--0------------0-------------|


                                                       
-----------------2---------|-----2-----------2--------|
--------5--5--------5------|--------5--------5-----5--|
-----------2-----------2---|-----------2-----2--2-----|
-----2-----4--4--------2---|--2--------2--2-----2-----|
--0--------2-----------2-4-|-----------5--5-----5-----|
---------------------------|--------------0-----0-----|


                                                       
--0~-------0----2------0--|---------------0--------0--|
-------------------0h2----|---------------0--------0--|
--------2-----------------|-----------1/2-------------|
-----2--------------------|--------2------------2-----|
--0~----------------------|-----4---------------------|
--------------------------|--2---------------2--------|


                                                        
---------------------------|--------------------0------|
--------3--3--------0h2-3~-|-----------3~----------0-2-|
-----------2---------------|--------3------------------|
-----0-----------0---------|-----2-----------2---------|
--2-----------2------------|---------------------------|
---------------------------|--2-----------2------------|


                                                       
----------------------------|-------------------0~----|
-----3/2-0--------0h2----0--|----------------------2--|
------------2~--------2-----|--------2--1~------------|
------------1~--------------|-------------------------|
--2---------2~--------------|-----2-------------------|
---------------2---


Tommy Emmanuel Tabs & Chords



Tommy Emmanuel Tabs, Tablatures, Chords, Lyrics

Buy Tommy Emmanuel CD
Tommy Emmanuel
Buy Tommy Emmanuel CD

  1. Tommy Emmanuel - Briskie Tabs
  2. Tommy Emmanuel - Drivetime Tabs
  3. Tommy Emmanuel - I Have Always Thought Of You Tabs
  4. Tommy Emmanuel - Ol' Brother Hubbard Tabs
  5. Tommy Emmanuel - Stay Close To Me Tabs



cowboylyrics.com
All lyrics are property and copyright of their owners. All lyrics provided for educational purposes only.