Trick Pony, Love Be Still Tabs, Chords, Lyrics

Trick Pony, Love Be Still Tabs, Chords

 SITE MENU
 Request Tabs
 Add/Correct Tabs
 DMCA Policy
 Country Sheet Music
0

BROWSE LYRICS AND TABS BY ARTIST/BAND NAME: SEARCH HERE:
A B C D E F G H I J K L M N O P Q R S T U V W X Y Z #
 

Trick Pony - Love Be Still (Tabs)


Trick Pony CD
Trick Pony Sheet music
Trick Pony Posters
Love Be Still
Trick Pony

b^bv = bend up, then down

Intro:
----------------------------------------
-----------------------7-7br-5----------
-----------------7-7-7---------7-7/9-6--
--/7-9b^bv------------------------------
-----------5-7/9------------------------
----------------------------------------

D            A          G               D
Lyin' here tonight with you here by my side
D                G                 A
God I wish that this could last forever
         D                A
But the plain and honest truth
      G                  D
Is I can't get enough of you 
    D           G                  A
And I am not complete 'til we're together


Chorus:
            D
Stay right here
        G
Just relax
          D
Lets get lost
          A
Just lay back
            D         G
And let it all slip away
        D
Slowly watch
     A               G
The night roll into day
G                  D                 A
Let two hearts in love go where they will
G                 D   A   D
Time may fly but love be still

(Play Intro)

These are busy times, things are movin' fast
So hold me now and kiss me soft and tender
Well I could not ask for more
Just lock the world outside our door
As our bodies become one and we surrender

(Chorus)

     A               G
The clock up on the wall keeps tickin'
 D          
And it always will
     Bm               D
But here with you we have the power
    A               G
To let our love be still


Lead:
---------------------------------------------------------------------------------------
-------8-----------------12b-10----------------9h11-11/13-13/15-15/17-17/19-19/22-22B--
--9-11---11-9-7----7-7-9--------11b-9/11-11h13-----------------------------------------
----------------9----------------------------------------------------------------------
---------------------------------------------------------------------------------------
---------------------------------------------------------------------------------------

Modulate Up

Chorus:
            A
Stay right here
        D
Just relax
          A
Lets get lost
          E
Just lay back
            A         D
And let it all slip away
        A
Slowly watch
     E               D
The night roll into day
D                  A                 E
Let two hearts in love go where they will
D                 A   E   A
Time may fly but love be still

Lead:
------------------------------------------------------
------------------------------------9-9br-7-----------
--9b^bv-----------------------9-9-9---------9-9/11-8--
--------6-6/9--11b^bv---------------------------------
----------------------7-9/11--------------------------
------------------------------------------------------

"Ah-a-ha-ha"...
                                         slides with delay into harmonica solo and out
-------12p11-12--------------------------20\-----21\----------
--9/12----------9-9/12--12brb----------------19\---------
------------------------------9/13--------------------------
--------------------------------------------------------
-------------------------------------------------------
-------------------------------------------------


Trick Pony Tabs & ChordsTrick Pony Lyrics



Trick Pony Tabs, Tablatures, Chords, Lyrics

Buy Trick Pony CD
Trick Pony
Buy Trick Pony CD

  1. Trick Pony - A Boy Like You Chords
  2. Trick Pony - Ain't Wastin Good Whiskey On You Chords
  3. Trick Pony - Can't Say That On The Radio Chords
  4. Trick Pony - Fast Horse Chords
  5. Trick Pony - I Didn't Chords
  6. Trick Pony - I'm Not Thinking Straight Anymore Chords
  7. Trick Pony - If You Think You've Got Trouble Chords
  8. Trick Pony - It's A Heartache Chords
  9. Trick Pony - Its Just What I Do Chords
  10. Trick Pony - Just What I Do Chords
  11. Trick Pony - Love Be Still Tabs
  12. Trick Pony - Love Is A Ball Chords
  13. Trick Pony - More Like Me Chords
  14. Trick Pony - Nobody Ever Died Of A Broken Heart Chords
  15. Trick Pony - Now Would Be The Time Chords
  16. Trick Pony - On A Mission Chords
  17. Trick Pony - On A Night Like This Chords
  18. Trick Pony - Once A Cowboy Chords
  19. Trick Pony - Party Of One Chords
  20. Trick Pony - Pour Me Chords
  21. Trick Pony - Pour Me 2 Chords
  22. Trick Pony - Thats What I Do Chords
  23. Trick Pony - The Bride Chords
  24. Trick Pony - When I Fall - Capo Chords
  25. Trick Pony - Whiskey River (w/ Wilie Nelson) Chords



cowboylyrics.com
All lyrics are property and copyright of their owners. All lyrics provided for educational purposes only.