Trooper, General Handgrenade Tabs, Chords, Lyrics

Trooper, General Handgrenade Tabs, Chords

 SITE MENU
 Request Tabs
 Add/Correct Tabs
 DMCA Policy
 Country Sheet Music
0

BROWSE LYRICS AND TABS BY ARTIST/BAND NAME: SEARCH HERE:
A B C D E F G H I J K L M N O P Q R S T U V W X Y Z #
 

Trooper - General Handgrenade (Chords)


Trooper CD
Trooper Sheet music
Trooper Posters

Trooper:
General Handgrenade
Album:
Trooper: Hot Shots
   G               D        (It does this 4 times then...) G    A     D
e-7--7--7----5---5------------------------------7---9----------
B-8--8--8----7---7------------------------------8---10--7h8--
G-7--7--7----7---7------------------------------7----9---7----    Verses

D----------------------------------------------------------7h9--
A----------------------------------------------------------------
E----------------------------------------------------------------

e-------------------------------------------------------------------------------

B-------------------------------------------------------------------------------

G-------------------------------------------------------------------------------
After verses
D-----------4-7-----------------------------4-7--------------------------------

A---2-5--5--------2-5--5-----------2-5--5--------4-7-5-----------------------

E-3*--------------3-----------/5-4-3---------------5**----------------------------

The above part is right except close to the end of the song when it
keeps the same pattern as the 'G'(*) during the D portion of the riff.At
the very end, it plays the A pattern(**) three times but at the end hits
the final note(D) twice: once, then a small pause then it hits it again.
There are slight variations during the song(Such as using power and
barre chords instead of the G/D and the D and the A/D chords that are
transcribed)This is the whole song. I know some of the lyrics but they
are by memory only and I don't have the c.d. which the song is on.My
name is Adam Rasmussen and I figured this one out myself. I hope that it
makes it on.


Trooper Tabs & Chords



Trooper Tabs, Tablatures, Chords, Lyrics

Buy Trooper CD
Trooper
Buy Trooper CD

  1. Trooper - General Handgrenade Chords



cowboylyrics.com
All lyrics are property and copyright of their owners. All lyrics provided for educational purposes only.