, Going Back Home Tabs, Chords, Lyrics

, Going Back Home Tabs, Chords

 SITE MENU
 Request Tabs
 Add/Correct Tabs
 DMCA Policy
 Country Sheet Music
0

BROWSE LYRICS AND TABS BY ARTIST/BAND NAME: SEARCH HERE:
A B C D E F G H I J K L M N O P Q R S T U V W X Y Z #
 

- Going Back Home (Chords)


CD
 Sheet music
Posters
Going Back Home - Troy Cassar-Daley
Intro:     

---------------------------------------------------------------------------------------------
---------------------------------------------------------------------------------------------
---------------------------------------------------------------------------------------------
---------------------------------------------------------------------------------------------
-------2h4---4p2p0-------2h4---4h6--7--------------------------------------------------------
-----0----------------0-----------------0----------------------------------------------------

Verse 1
A                                          
I've been driving every back road, me and this old car
E                                                      B7              A
With one headlight working, its only overheated three times so far
                              E
and I guess that's pretty good

Verse 2
A
When I lost sight of the city, I felt a big relief
E                                            B7           A
It took me to a place, a place where i always wanted to be
 	        E
I'm going back home

Chorus
    Cm                           A                     E
Im going back home to where the people call you by your first name
    Cm 	  	                 A                         B7
Im going back home to where the people treat you just the same
 	 A
As they always have
E    A   E A
Back Home
               
Oh Back Home

Solo 1 (after 1st and 3rd chorus) 

---------------------------------------------------------------------------------------------
---------------------------------------------------------------------------------------------
---------------------------------------------------------------------------------------------
-----4/6---4-----------------------2----4/6---4----------------------------------------------
----------------7---4---2---2h4-------------------7-----4----2-------------------------------
---------------------------------------------------------------------------------------------

Verse 3
Well yes there was a woman, I guess you know the end
Cos know im looking, for a place for a broken heart to mend
That's why im going back home

Chorus

Im going back home to where the people call you by your first name
Im going back home to where the people treat you just the same 
As they always have
Back home
Oh im going back home

Solo 1 (after 1st and 3rd chorus) 
---------------------------------------------------------------------------------------------
---------------------------------------------------------------------------------------------
---------------------------------------------------------------------------------------------
-----4/6---4-----------------------2----4/6---4----------------------------------------------
----------------7---4---2---2h4-------------------7-----4----2-------------------------------
---------------------------------------------------------------------------------------------

Verse 4
Well we got the news this morning, dad had passed away
A new day was dawning, and the tears were rolling down my face
Cos I was going back home

Chorus
Im going back home to where the people call you by your first name
Im going back home to where the people treat you just the same 
As they always have
Back home
Yeah going back home

Solo 2  

---------------------------------------------------------------------------------------------
---------------------------------------------------------------------------------------------
---------------------------------------------------------------------------------------------
------4/6-----4-----------------------------2-----4/6------4-------------------2-------------
--------------------7-----2h4---2---2h4-----------------------7-----2h4----------------------
---------------------------------------------------------------------------------------------

Verse 4
Ive been driving every back road, again and again
With one headlight working, it only overheats every now and then
And I guess that's pretty good

 


Troy Cassar Daley Tabs & Chords



Troy Cassar Daley Tabs, Tablatures, Chords, Lyrics

Buy Troy Cassar Daley CD
Troy Cassar Daley
Buy Troy Cassar Daley CD

  1. Troy Cassar Daley - 40 Miles Chords
  2. Troy Cassar Daley - Bar Room Roses Chords
  3. Troy Cassar Daley - Born To Survive Chords
  4. Troy Cassar Daley - Dark End Of The Street Chords
  5. Troy Cassar Daley - Dream Out Loud Chords
  6. Troy Cassar Daley - Factory Man Chords
  7. Troy Cassar Daley - Family Farm Chords
  8. Troy Cassar Daley - Going Back Home Chords
  9. Troy Cassar Daley - I Wish I Was A Train Chords
  10. Troy Cassar Daley - Ladies In My Life Tabs
  11. Troy Cassar Daley - Losing My Blues Tonight Chords
  12. Troy Cassar Daley - Make The Most (of Every Day With You) Chords
  13. Troy Cassar Daley - My Home Town Chords
  14. Troy Cassar Daley - River Boy Chords
  15. Troy Cassar Daley - River Town Chords
  16. Troy Cassar Daley - The Wind Blows Over Chords
  17. Troy Cassar Daley - They Don't Make Em' Like That Anymore Chords
  18. Troy Cassar Daley - Time To Say Goodbye Chords
  19. Troy Cassar Daley - When A Small Town Dies Chords
  20. Troy Cassar Daley - Yer So Bad Chords
  21. Troy Cassar Daley - You Never Know Till You Try Chords
  22. Troy Cassar Daley - You Will Believe In Me Chords



cowboylyrics.com
All lyrics are property and copyright of their owners. All lyrics provided for educational purposes only.