, Fingertips Tabs, Chords, Lyrics

, Fingertips Tabs, Chords

 SITE MENU
 Request Tabs
 Add/Correct Tabs
 DMCA Policy
 Country Sheet Music
0

BROWSE LYRICS AND TABS BY ARTIST/BAND NAME: SEARCH HERE:
A B C D E F G H I J K L M N O P Q R S T U V W X Y Z #
 

- Fingertips (Chords)


CD
 Sheet music
Posters
Fingertips
Troy Johnson

Intro: 
(NOTE: In the first strum, play "*" with your pinky, and " at " with your ring 
finger, leaving your other two fingers free for the hammer ons)

First Strum:
e|*3-----------|
B|-0---0h1-0h1-|
G|-0-0-0h2-0h2-|
D|-0-----------|
A|-------------|
E| at 3-3---------|

Picking Over Banjo (**P.O.B.**):
   Cadd9     Cadd9/B   Cadd9/A    G
e|--------------------------------------------------------|
B|-3--3------3--3------3--3------3-3----------------------|
G|--0---0-0---0---0-0---0---0-0----------0----------------|
D|------------------------------------0h2-----------------|
A|-3-3---3---2-2---2---0-0---0----------------------------|
E|--------------------------------3-3---------------------|

   Cadd9     Cadd9/B   Cadd9/A
e|--------------------------------------------------------|
B|-3--3------3--3------3--3-------------------------------|
G|--0---0-0---0---0-0---0---0-0---------------------------|
D|--------------------------------------------------------|
A|-3-3---3---2-2---2---0-0---0----------------------------|
E|--------------------------------------------------------|

Verse 1:
Cadd9      Cadd9/B         Cadd9/A     G
Forget the look he carried in his eyes
Cadd9      Cadd9/B          Cadd9/A 
Forget the way she said his name
Cadd9            Cadd9/B          Cadd9/A      G
They were barely touching as they passed me by
Cadd9              Cadd9/B         Cadd9/A     
Yeah but they were loving just the same, it was all in the

Chorus:
G              Em               C
 The fingertips, the fingertips
          D                         
The fingertips, oh baby that was it
G              Em               C
 The fingertips, the fingertips
          D                      G
The fingertips, oh baby that was it

Repeat **P.O.B.**


Verse 2:
Just like the summer sun can burn your face
And a little smoke can get you high
We didnít end it with a warm embrace
We never even said goodbye, it was all in the

Chorus 

Bridge:
Bm                    G
 Anticipation of the slightest touch
Bm                         G
 That little moment always meant so much 
   Am                                   C
To me itís where the will and the wonít
                               Em               D
Yeah the do and the donít come out I donít know how
But itís all in the...

Chorus

Outro (play **P.O.B.** forever):
Sing (forever): la la la la...
 


Troy Johnson Tabs & Chords



Troy Johnson Tabs, Tablatures, Chords, Lyrics

Buy Troy Johnson CD
Troy Johnson
Buy Troy Johnson CD

  1. Troy Johnson - Airplane (live Acoustic) Chords
  2. Troy Johnson - Cold Spot Chords
  3. Troy Johnson - Fingertips Chords



cowboylyrics.com
All lyrics are property and copyright of their owners. All lyrics provided for educational purposes only.