, Country Swing Scale Tabs, Chords, Lyrics

, Country Swing Scale Tabs, Chords

 SITE MENU
 Request Tabs
 Add/Correct Tabs
 DMCA Policy
 Country Sheet Music
0

BROWSE LYRICS AND TABS BY ARTIST/BAND NAME: SEARCH HERE:
A B C D E F G H I J K L M N O P Q R S T U V W X Y Z #
 

- Country Swing Scale (Tabs)


CD
 Sheet music
Posters
COUNTRY SWING SCALE


1. E
2. B
3. G
4. D
5. A
6. E
    / SLIDE



E-------------------------------------------------------------------
B-------------------------------------------------------------------
G-------------------------------------------------------------------
D---------------------------------------------------2-4-4/5-5/4-2---
A--------2-4-4/5-5/4-2---------2-4-4/5-5/4-2---0--4---------------4-
E---0--4---------------4--0--4---------------4----------------------

E-------------------------------------------------------------------
B-------------------------------------------------------------------
G-------------------------------------------------------------------
D---------------------------4-6-----2-4-----------------------------
A-------2-4-4/5-5/4-2---0-6-----0-4---------2-4-2-2-2--2-2-2--------
E--0--4---------------4-----------------0-4-------------------------
 THEN REPEAT
WHEN YOU GET THIS DOWN YOU CAN DOUBLE PICK EVERYTHING FOR BETTER SOUND!


Unknown Artist Tabs & Chords



Unknown Artist Tabs, Tablatures, Chords, Lyrics

Buy Unknown Artist CD
Unknown Artist
Buy Unknown Artist CD

  1. Unknown Artist - Country Swing Scale Tabs
  2. Unknown Artist - Italiana Tabs



cowboylyrics.com
All lyrics are property and copyright of their owners. All lyrics provided for educational purposes only.