, Italiana Tabs, Chords, Lyrics

, Italiana Tabs, Chords

 SITE MENU
 Request Tabs
 Add/Correct Tabs
 DMCA Policy
 Country Sheet Music
0

BROWSE LYRICS AND TABS BY ARTIST/BAND NAME: SEARCH HERE:
A B C D E F G H I J K L M N O P Q R S T U V W X Y Z #
 

- Italiana (Tabs)


CD
 Sheet music
Posters
This is a great song for player to learn pull offs and hammers so 

Italiana					Anonymous
Drop D

                                                                           
                                                                           
E|-------2---3---5-------7---3---0---5---2--------------------------------|
B|---3h5------------------------------------------------------------------|
G|------------------------------------------------------------------------|
D|-----------0-----------0-----------0-----------0------------------------|
A|-------0-----------0-----------0-----------0----------------------------|
E|---0-----------0-----------0-----------0--------------------------------|

                                                                           
                                                                           
E|---5p3-0h2-3p0-2-------3-------0---0h2----------------------------------|
B|---------------------------------------3--------------------------------|
G|------------------------------------------------------------------------|
D|-----------0-----------0-----------0-----------0------------------------|
A|-------0-----------0-----------0-----------0----------------------------|
E|---0-----------0-----------0-----------0--------------------------------|

                                                                           
                                                                           
E|-------2---3---5-------7---3---0---5---2--------------------------------|
B|---3h5------------------------------------------------------------------|
G|------------------------------------------------------------------------|
D|-----------0-----------0-----------0-----------0------------------------|
A|-------0-----------0-----------0-----------0----------------------------|
E|---0-----------0-----------0-----------0--------------------------------|

                                                                           
                                                                           
E|---5p3-0h2-3p0-2---3p2-------------0h2----------------------------------|
B|-----------------------5p3-2p0-2h3-----3--------------------------------|
G|------------------------------------------------------------------------|
D|-----------0-----------0-----------0-----------0------------------------|
A|-------0-----------0-----------0-----------0----------------------------|
E|---0-----------0-----------0-----------0--------------------------------|

                                                                           
                                                                           
E|---2---0-------2-----------2---0-------5--------------------------------|
B|-----------3-----------------------3------------------------------------|
G|------------------------------------------------------------------------|
D|-----------0-----------0-----------0-----------0------------------------|
A|-------0-----------0-----------0-----------0----------------------------|
E|---0-----------0-----------0-----------0--------------------------------|

                                                                           
                                                                           
E|---2---0-------5-------3-------0---0h2----------------------------------|
B|-----------3---------------------------3--------------------------------|
G|------------------------------------------------------------------------|
D|-----------0-----------0-----------0-----------0------------------------|
A|-------0-----------0-----------0-----------0----------------------------|
E|---0-----------0-----------0-----------0--------------------------------|

                                                                           
                                                                           
E|---3p2-0-------2-----------3p2-0-------5--------------------------------|
B|-----------3-----------------------3------------------------------------|
G|------------------------------------------------------------------------|
D|-----------0-----------0-----------0-----------0------------------------|
A|-------0-----------0-----------0-----------0----------------------------|
E|---0-----------0-----------0-----------0--------------------------------|

                                                                           
                                                                           
E|-------0h2-3p0-2---0h2-3p2---------0h2----------------------------------|
B|---5p3---------------------5p3-2h3-----3--------------------------------|
G|------------------------------------------------------------------------|
D|-----------0-----------0-----------0-----------0------------------------|
A|-------0-----------0-----------0-----------0----------------------------|
E|---0-----------0-----------0-----------0--------------------------------|

                                                                           
                                                                           
E|------------------------------------------------------------------------|
B|------------------------------------------------------------------------|
G|-----------0---2-------4---0-------2------------------------------------|
D|---0h2-4---0-----------0-------2---0---4-------0------------------------|
A|-------0-----------0-----------0-----------0----------------------------|
E|---0-----------0-----------0-----------0--------------------------------|

                                                                           
                                                                           
E|------------------------------------------------------------------------|
B|------------------------------------------------------------------------|
G|------------------------------------------------------------------------|
D|---2p0-2h4-5p2-4-5p4-2p0---------2h4-0-------0--------------------------|
A|-------------------------4p2-4h5---------0------------------------------|
E|---0-----------0---------------------0----------------------------------|

                                                                           
                                                                           
E|------------------------------------------------------------------------|
B|------------------------------------------------------------------------|
G|---------------------------------------2--------------------------------|
D|---4---2---0---4-------0---4---2---0-----------0------------------------|
A|-------0-----------0-----------0-----------0----------------------------|
E|---0-----------0-----------0-----------0--------------------------------|

                                                                           
                                                                           
E|------------------------------------------------------------------------|
B|------------------------------------------------------------------------|
G|---------------2--------------------------------------------------------|
D|---4---2---0-------5p4-2p0---------2h4-0-------0------------------------|
A|-------0-------------------4p2-4h5---------0----------------------------|
E|---0-----------0-----------------------0--------------------------------|

                                                                           
                                                                           
E|---3p2-0-------2-----------3p2-0h2-----5--------------------------------|
B|-----------3-----------------------3------------------------------------|
G|------------------------------------------------------------------------|
D|-----------0-----------0-----------0-----------0--------------


Unknown Artist Tabs & Chords



Unknown Artist Tabs, Tablatures, Chords, Lyrics

Buy Unknown Artist CD
Unknown Artist
Buy Unknown Artist CD

  1. Unknown Artist - Country Swing Scale Tabs
  2. Unknown Artist - Italiana Tabs



cowboylyrics.com
All lyrics are property and copyright of their owners. All lyrics provided for educational purposes only.