Ricky Van Shelton, It Wouldn't Kill Me Tabs, Chords, Lyrics

Ricky Van Shelton, It Wouldn't Kill Me Tabs, Chords

 SITE MENU
 Request Tabs
 Add/Correct Tabs
 DMCA Policy
 Country Sheet Music
0

BROWSE LYRICS AND TABS BY ARTIST/BAND NAME: SEARCH HERE:
A B C D E F G H I J K L M N O P Q R S T U V W X Y Z #
 

Ricky Van Shelton - It Wouldn't Kill Me (Tabs)


Ricky Van Shelton CD
Ricky Van Shelton Sheet music
Ricky Van Shelton Posters
Ricky Van Shelton  -  It Wouldn't Kill Me (tab)



I've tabbed out the picking for the intro and chorus, but if you're gonna pick, take
no notice of the chord shapes shown here, as they won't be quite right for the picking.

The chorus is just picking up each note of the chord..really easy, so I didn't tab that out.


Play this with capo on 2nd fret.
All chord names and shapes are relative to position of capo.
Real chord names are in square brackets below.


D    (E)     =   xx0232                                   D/F#   ((E/Ab))     =   2x0232

G    (A)     =   320033                                   Asus   (Bsus)     =   x02230

A7   (B7)    =   x02020                                   Em     (F#m)      =   022000

Bm   (Dbm)   =   x24432                                   A/Db   (B/Eb)     =   x42220

G/F# (A/Ab)  =   2x0003                                   
  

*********************************************************************************************



D  D/F#  G  Asus  D  D/F#  G  Asus  A7  
INTRO



D                 A           G     
 Last night after dinner as I read the evening paper,
         D           G       Em             A       
I looked up to see a look of sadness in her eyes.
  Bm                 A/Db       D          D/F#        G       G/F#
I asked her what was wrong, she sighed and said, 'It's nothin',
    Em                        A
But something in that nothin' made me realize:



            D       D/F#
It wouldn't kill me,
   G               A
To tell her that I love her.
         D       D/F#
Wouldn't kill me,
   G              A
To make her feel alive.
        Bm                D/F#
I could take more time to show her
        D        D/F#    G
How she makes my life so right.
            D       Em
It wouldn't kill me,
        G            A             D     D  D/F#  G  Asus  A
Like it would if she ever said goodbye.



  D                    A            G
I don't know what gets in me not to take these precious moments,
D                   G            Em                A
Share them with the only one who makes it all worthwhile.
      Bm              A/Db                   D    D/F#       G       G/F#
I get so caught up in little things when the only thing that matters,
       Em                                    A
Is the way she leaves me breathless from the beauty of her smile.



            D       D/F#
It wouldn't kill me,
   G               A
To tell her that I love her.
         D       D/F#
Wouldn't kill me,
   G              A
To make her feel alive.
        Bm                D/F#
I could take more time to show her
        D        D/F#    G
How she makes my life so right.
            D       Em
It wouldn't kill me,
        G            A             D
Like it would if she ever said goodbye.




D  D/F#  G  Asus  D  D/F#  G  Asus  A
INSTRUMENTAL



        Bm                A/Db
I could take more time to show her
        D        D/F#    G
How she makes my life so right.
            D       Em
It wouldn't kill me,
        G            A        D        D  D/F#  G  Asus  A  D 
Like it would if she ever said goodbye.



*********************************************************************************************


ALL NOTES IN THIS TAB ARE RELATIVE TO POSITION OF CAPO!!



INTRO


   D          D/F#   G       Asus    D        D/F#   G      Asus A7           

E------2-2-0--2-5--5-5-3-3-2-------------2-0--2-5--5-5-3-3-2----------|
D-----3----3-3--------------3-----------3--3-3--------------3---2----|
G-----2------------6-6-4-4-2---2-0------2----------6-6-4-4-2----0-0---|
D-0-4------------------------2------0-4-----------------------2------|
A----------------------------0-------------------------------0--------|
E-------------2-------------------------------2-----------------------|



VERSE


   D    A         G             D    G    Em   A           Bm   A/Db  D  D/F# G         G/F#

E-------------------3------------------3---------5-----------2-----0-----2-----------------
D---3------2h3-2----3-3---3------3-----3---3-----2h3-2--2----3---2---3-3-------3-----3--3-
G---2-2---2-2---2--4---2h4-2-0---2-2--4----4-4--2------2----4----2--2--2-------4-4-2h4-0---
D-0-----2----------------------0-----------------------2-------------0-----------------4--
A-------0--------------------------------------0-----------2----4--------------------------
E-----------------3---3--------------3----0-----------------------------2-----3----3-------

    Em      A

E------3--------5---5---|
D---3--3-----2-----2---|
G---4-4--4-----2--2-----|
D--------2--2---2-2----|
A-----------0-----------|
E--0--------------------|



INSTRUMENTAL

There are 2 guitars playing here, but I've just tabbed the one playing the higher
notes.

   D     D/F#    G        Asus  D      D/F#    G       Asus A7  Bm    

E-----------5--5-5------------------------5--5-5--------------------|
D-5/7-5-5/7------8-8-7\3-3-3/5--5/7-5-5/7------8-8-7\3-3-3/5-5/7---|
G-------7-----------------------------7-----------------------------|
D------------------------------------------------------------------|
A-------------------------------------------------------------------|
E-------------------------------------------------------------------|



 


Van Shelton Ricky Tabs & ChordsVan Shelton Ricky Lyrics



Van Shelton Ricky Tabs, Tablatures, Chords, Lyrics

Buy Van Shelton Ricky CD
Van Shelton Ricky
Buy Van Shelton Ricky CD

  1. Van Shelton Ricky - After The Lights Go Out Chords
  2. Van Shelton Ricky - Backroads Chords
  3. Van Shelton Ricky - Crime Of Passion Chords
  4. Van Shelton Ricky - Don't Send Me No Angels Chords
  5. Van Shelton Ricky - Dont We All Have The Right Chords
  6. Van Shelton Ricky - From Jack To King Chords
  7. Van Shelton Ricky - I Am A Simple Man Chords
  8. Van Shelton Ricky - I Meant Every Word He Said Chords
  9. Van Shelton Ricky - I'll Leave This World Loving You Chords
  10. Van Shelton Ricky - I've Cried My Last Tear For You Chords
  11. Van Shelton Ricky - It Wouldn't Kill Me Tabs
  12. Van Shelton Ricky - Keep It Between The Lines Chords
  13. Van Shelton Ricky - Leave World Lovin You Chords
  14. Van Shelton Ricky - Life Turned Her That Way Chords
  15. Van Shelton Ricky - Life's Little Up's And Down's Chords
  16. Van Shelton Ricky - Love Without You Chords
  17. Van Shelton Ricky - Somebody Lied Chords
  18. Van Shelton Ricky - Statue Of A Fool Chords
  19. Van Shelton Ricky - Who'll Turn Out The Lights? Chords



cowboylyrics.com
All lyrics are property and copyright of their owners. All lyrics provided for educational purposes only.