, Help Me Get Over You Tabs, Chords, Lyrics

, Help Me Get Over You Tabs, Chords

 SITE MENU
 Request Tabs
 Add/Correct Tabs
 DMCA Policy
 Country Sheet Music
0

BROWSE LYRICS AND TABS BY ARTIST/BAND NAME: SEARCH HERE:
A B C D E F G H I J K L M N O P Q R S T U V W X Y Z #
 

- Help Me Get Over You (Tabs)


CD
 Sheet music
Posters
Intro
            
             C    F    G     C        F    C
E----------------------------------------------------0--------
B-----------8-8------8-10-8--------------------------1--------
G---------------9-10--------9-8-9--10-9-10-9---------0--------
D------------------------------------------------0---2--------
A----0-2-3-----------------------------------2-3-----3--------
E--3-------------------------------------------------0--------

Chorus:

  C          F    G
Help me get over you
  C            F       G	  	
It's something I can't do
  C              F      G       
I've tried but there's no use
  C                 G    C  G C G
There's no getting over you
                

Verse

  C                  F     G
I remember once you told me
  C                      F       G  G F# F                                 
When you love, you love one man only
     F                 C         Am                   
And I've been the one that you adored
    F   G                C   G C G   
But I ain't that man no more


Repeat Chorus

Solo as below
Change key end of solo to D


Verse
 
  D                        G  A
I won't ask you for your love
  D                     G                A  A Ab7 G
I can't take the pain when your answer comes
  G                        D   A7 G
I think of what it used to be
  G         A                D
When your love was just for me

Change key to E
Chorus
  E          A     B7
Help me get over you
  E            A       B7
It's something I can't do
  E              A         B7
I've tried but there's no use
  E                 B7    E
There's no getting over you
  E            A           B7
I've tried but there's no use
  E                 B7         E A B7 E
There's no getting over.......you



Solo
    C   F   G      C    F    G     C          F          G       C      C      C     G     C     D  
E------------------------------------------8-8--8-8-10-12-10-8-----------------------------------3--
B--8-8----8-10-8----------8-10-8--8h10-10-----10--------------12---------------------------------2--
G-----9-10------9-8-9-9-10--------------------------------------8-9-9--8-9-9--8-9-8-----9-10br9--3--
D----------------------------------------------------------------------------------12-10---------0--
A------------------------------------------------------------------------------------------------0--
E------------------------------------------------------------------------------------------------0--





Wagoneers Tabs & Chords



Wagoneers Tabs, Tablatures, Chords, Lyrics

Buy Wagoneers CD
Wagoneers
Buy Wagoneers CD

  1. Wagoneers - Help Me Get Over You Tabs
  2. Wagoneers - Please Don't Think I'm Guilty Tabs



cowboylyrics.com
All lyrics are property and copyright of their owners. All lyrics provided for educational purposes only.