, Please Don't Think I'm Guilty Tabs, Chords, Lyrics

, Please Don't Think I'm Guilty Tabs, Chords

 SITE MENU
 Request Tabs
 Add/Correct Tabs
 DMCA Policy
 Country Sheet Music
0

BROWSE LYRICS AND TABS BY ARTIST/BAND NAME: SEARCH HERE:
A B C D E F G H I J K L M N O P Q R S T U V W X Y Z #
 

- Please Don't Think I'm Guilty (Tabs)


CD
 Sheet music
Posters
   NC           D
He didn't say a word
 G                 D
When they came to take him
             A
Out of his cell
 G              D
And from this world
           G                D
He just handed the warden some paper
            A      G        D
A simple messsage for his girl


Chorus:
      D        G               D
Please don't think that I am guilty
         A                   D
I never did the thing they said
          G                D  
I had to sign the sworn confession
               A   G         D
The sherriffs gun was to my head


Short Solo:

E----------7-7--------7-10-10-12-12br-10----10---------------
B--6S7--10----9S10-10--------------------12----12-10---------
G----------------------------------------------------9br-7---
D------------------------------------------------------------
A------------------------------------------------------------
E------------------------------------------------------------



     D          G               D
She had hoped that she'd hear from him
          A       G            D
Some explanation for all her pain
          G                  D
But she waited forever and ever
              A    G           D
Those final words he wrote in vain


Repeat Chorus

Outro:

E------0-2-0---0--10-------------10----------------------------0-----2-----
B----3-------3-------12-10----10---------------------------0-3-------3-----
G--2-----------------------11----------7-7-6-4-4-3-2-2s1-0-------2---4-----
D------------------------------------7-------------------------------4-----
A--------------------------------------------------------------------2-----
E--------------------------------------------------------------------2-----



Wagoneers Tabs & Chords



Wagoneers Tabs, Tablatures, Chords, Lyrics

Buy Wagoneers CD
Wagoneers
Buy Wagoneers CD

  1. Wagoneers - Help Me Get Over You Tabs
  2. Wagoneers - Please Don't Think I'm Guilty Tabs



cowboylyrics.com
All lyrics are property and copyright of their owners. All lyrics provided for educational purposes only.