Doc Watson, Doc's Guitar - Old Aunt Dinah Tabs, Chords, Lyrics

Doc Watson, Doc's Guitar - Old Aunt Dinah Tabs, Chords

 SITE MENU
 Request Tabs
 Add/Correct Tabs
 DMCA Policy
 Country Sheet Music
0

BROWSE LYRICS AND TABS BY ARTIST/BAND NAME: SEARCH HERE:
A B C D E F G H I J K L M N O P Q R S T U V W X Y Z #
 

Doc Watson - Doc's Guitar - Old Aunt Dinah (Tabs)


Doc Watson CD
Doc Watson Sheet music
Doc Watson Posters
                        Doc's Guitar - Old Aunt Dinah                           
Doc Watson
 Capo 3rd fret



                                                                               
E||---------------------|--------------------------|--------------------------|
B||---------------------|-----------1-----------1--|-----------1h-0--------0--|
G||---------------------|-----0-----------2--------|-----2-----------0--------|
D||---------------------|--------2-----------2-----|--------3-----------0-----|
A||-----------0----2----|--3-----------0-----------|--------------------------|
E||------3--------------|--------------------------|--1-----------3-----------|


                                                                              
--------------------------|--------------------------|-------0-------1-------|
-----------1-----------1--|-----------1h-0--------0--|-----------------------|
-----0-----------2--------|-----2-----------0--------|-----------------------|
--------2-----------2-----|--------3-----------0-----|-------2----------3----|
--3-----------0-----------|--------------------------|--3--------------------|
--------------------------|--1-----------3-----------|------------1----------|


                                                                                
--3--------0-------------||------------3h-0----------|-------------------------|
-----0-----------0-------||---0h-1-----------3h-1----|-----------1-------------|
-------------------------||*-------------------------|--0h-2-----------2-------|
--------0-----------0----||*--------2-----------2----|--------3-----------3----|
-------------------------||---0h-3--------3----------|-------------------------|
--3-----------3----------||--------------------------|--1-----------1----------|


                                                                             
-----------3h-0----------|-------------------------|----------3h-0----------|
--0h-1-----------3h-1----|----------0-----------0h-|--1-------------3h-1----|
-------------------------|--0-------------2--------|------------------------|
--------2-----------2----|-------0-----------0-----|-------2-----------2----|
--0h-3--------3----------|-------------------------|--3----------3----------|
-------------------------|--3----------3-----------|------------------------|


                                                                             
-------------------------|------------------------|------------------------||
-----------1-------------|--0-------------0-------|--1---------------------||
--0h-2-----------2-------|----------2-------------|---------------0-------*||
--------3-----------3----|-------0-----------0----|-------2----------2----*||
-------------------------|------------------------|--3---------------------||
--1-----------1----------|--3----------3----------|------------3-----------||


                                                    
-----------0-------------|-------------------------|
-----------------0-------|--3--------0-------------|
--0h-1-------------------|-----1-----------1-------|
--------2-----------2----|--------2-----------2----|
-------------------------|-------------------------|
--0-----------0----------|--0-----------0----------|


                                                          
----------------------------|----------------------------|
--0h-1h-0-----0-------------|--0h-1h-0-----0-------------|
--------------------2-------|--------------------2-------|
-----------2-----------2----|-----------2-----------2----|
--0-------------------------|--0-------------------------|
-----------------0----------|-----------------0----------|


                                                                            
----------2-------------|--0h-2-----0-------------|----------3h-0----------|
----------------3-------|-----------------3-------|--0-------------3h-0----|
-------2-----------2----|--------2-----------2----|------------------------|
--0---------------------|--0----------------------|-------0-----------0----|
-------------0----------|--------------0----------|------------------------|
------------------------|-------------------------|--3----------3----------|


                                                                           
----------------------|-----------3h-0----------|-------------------------|
-------0--------------|--0h-1-----------3h-1----|-----------1-------------|
--3---------0---------|-------------------------|--0h-2-----------2-------|
-------0---------0----|--------2-----------2----|--------3-----------3----|
----------------------|--0h-3--------3----------|-------------------------|
--3---------3---------|-------------------------|--1-----------1----------|


                                                                             
-----------3h-0----------|-------------------------|----------3h-0----------|
--0h-1-----------3h-1----|----------0-----------0h-|--1-------------3h-1----|
-------------------------|--0-------------2--------|------------------------|
--------2-----------2----|-------0-----------0-----|-------2-----------2----|
--0h-3--------3----------|-------------------------|--3----------3----------|
-------------------------|--3----------3-----------|------------------------|


                                                                          
-------------------------|------------------------|----------------------|
-----------1-------------|--0-------------0-------|--1-------------------|
--0h-2-----------2-------|----------2-------------|----------------------|
--------3-----------3----|-------0-----------0----|----------------------|
-------------------------|------------------------|--3---------0----2----|
--1-----------1----------|--3----------3----------|-------3--------------|


                                                        2x
|---------------------------|---------------------------||
|------------1-----------1--|-----------1h-0--------0---||
|*-----0-----------2--------|-----2-----------0--------*||
|*--------2-----------2-----|--------3-----------0-----*||
|---3-----------0-----------|---------------------------||
|---------------------------|--1-----------3------------||


                                                                          
-------0-------1-------|--3--------0-------------|-------0---------------|
-----------------------|-----0-----------0-------|--4b-----------1-------|
-----------------------|-------------------------|-----------------------|
-------2----------3----|--------0-----------0----|-------2----------2----|
--3--------------------|-------------------------|--3--------------------|
------------1----------|--3-----------3----------|------------3----------|


                                                                            
-------------------------|----------0-------------|----------------0-------|
-----------1-------------|--4b------------1-------|----------1-------------|
--0h-2-----------2-------|------------------------|--0---------------------|
--------3-----------3----|-------3-----------3----|-------2-----------2----|
-------------------------|------------------------|--3---------------------|
--1-----------1----------|--1----------1----------|-------------3----------|


                                                                        
--3---------1---------|--0-------------0-------|-----------------------|
--0---------0---------|--0-------4b------------|--1--------------------|
----------------------|------------------------|---------------0-------|
-------0---------0----|-------0-----------0----|-------2----------2----|
----------------------|------------------------|--3--------------------|
--3---------3---------|--3----------3----------|------------3----------|


                                 


Watson Doc Tabs & ChordsWatson Doc Lyrics



Watson Doc Tabs, Tablatures, Chords, Lyrics

Buy Watson Doc CD
Watson Doc
Buy Watson Doc CD

  1. Watson Doc - Alberta Chords
  2. Watson Doc - Beaumont Rag Chords
  3. Watson Doc - Deep River Blues Chords
  4. Watson Doc - Doc's Guitar - Old Aunt Dinah Tabs
  5. Watson Doc - Girl In Blue Velvet Band Chords
  6. Watson Doc - Intoxicated Rat Chords
  7. Watson Doc - Mama Don't Allow No Music Chords
  8. Watson Doc - Nashville Picking Tabs
  9. Watson Doc - Nothin' To It Tabs
  10. Watson Doc - Tennessee Rag Tabs
  11. Watson Doc - Tennessee Stud Chords



cowboylyrics.com
All lyrics are property and copyright of their owners. All lyrics provided for educational purposes only.