, Little Doggies Tabs, Chords, Lyrics

, Little Doggies Tabs, Chords

 SITE MENU
 Request Tabs
 Add/Correct Tabs
 DMCA Policy
 Country Sheet Music
0

BROWSE LYRICS AND TABS BY ARTIST/BAND NAME: SEARCH HERE:
A B C D E F G H I J K L M N O P Q R S T U V W X Y Z #
 

- Little Doggies (Tabs)


CD
 Sheet music
Posters
West Side Winders:Little Doggies

Written by Dan Peters


Copyright 2005 He's Dead Jim Music ASCAP



Intro

E-------------5-----------------5-----------------5------
B-------5-5h7---7---------5-5h7---7---------5-5h7---7----
G---5h6-6-6h7-----7---5h6-6-6h7-----7---5h6-6-6h7-----7--
D---5-----------------5-----------------5----------------
A-0-----------------0-----------------0------------------
E--------------------------------------------------------

 Let Ring  Bigsby Dip
E-----------9----------
B----------10----------
G--------9-------------
D------9---------------
A---10-----------------
E-9--------------------


Head (1st time)

E------------------------------------------------------------
B----------------------------5--------7----8-8p7-5-----------
G-4p2p0---0-------------2----5h6p5----7----9-9p7-5h6----4p2p0
D-------4---2p0--------------------7-----7-----------7-------
A---------------4p0-3h4---0----------------------------------
E------------------------------------------------------------


E-----------------------------------------------------------
B--------------------------14p12----12-14----14p12----12-14-
G---0-------------2--------14p12----12-14----14p12----12-14-
D-4---2p0-------------2/11-------11-------11-------11-------
A---------4p0-3h4---0---------------------------------------
E-----------------------------------------------------------


E-----------------------------------------------------------
B----12----10\8----7-------------------------7-----7-7-----3
G----12----11\9----7-------------7-----7-----7p5---5-7p5---4
D-11----12------10---10-7------------------------7-------0--
A-------------------------10-8h9---8h9---9\5----------------
E-----------------------------------------------------------


E-----------------------------------------------------------
B-2\1-------------------------------------------------------
G-3\2-4p2p0---0-------------2-----2------2-2-----2----------
D-----------4---2p0------------------5---4-2----------------
A-------------------4p0-3h4---0-0--0---0-----3h4------------
E--------------------------------------------------3h4-0-2-3h4


E-----------------------------------------------------------
B-----------------------------------------------------------
G-----------------------------------------------------------
D-----------2-----------------------------3-------------------
A-2-4-2-4h5---5p4-2-------------3-5-3-5h6---6p5-3-------------
E-------------------3h4-1-3-4h5-------------------4h5-0-2-3h4-


E-----------------------------------------------------------
B-----------------------------------------------------------
G-------------------------------------------------------5-6-
D-------------------------4-----5-----6-----7-----8-7-7-----
A-2-4p2---------3-5p3-------------------------------7-------
E-------1-3-4h5-------1/2---2/3---3/4---4/5---5/6---5-------


E-------------------------------------------------------
B-----5-------------------------------------------------
G-7-8---8\7p5---7---5-6---------------------------------
D-------------7---7-----7-5-----------------------------
A---------------------------7-6-5p3p0-3-4---------------
E-----------------------------------------5b(6)r5b(6)r5-


Repeat Intro

Head (2nd time)

E------------------------------------------------------------
B----------------------------5--------7----8-8p7\5-----------
G-4p2p0---0-------------2----5h6p5----7----9-9p7\5--5h6---4p2p0
D-------4---2p0--------------------7-----7---------7----7----
A---------------4p0-3h4---0----------------------------------
E------------------------------------------------------------


E-----------------------------------------------------------
B--------------------------14p12----12-14----14p12----12-14-
G---0-------------2--------14p12----12-14----14p12----12-14-
D-4---2p0-------------2/11-------11-------11-------11-------
A---------4p0-3h4---0---------------------------------------
E-----------------------------------------------------------


E-----------------------------------------------------------
B----12----10\8----7-------------------------7-----7-7-----3
G----12----11\9----7-------------7-----7-----7p5---5-7p5---4
D-11----12------10---10-7------------------------7-------0--
A-------------------------10-8h9---8h9---9\5----------------
E-----------------------------------------------------------


E-----------------------------------------------------------
B-2\1-------------------------------------------------------
G-3\2-4p2p0---0-------------2-----2------2-2-----2----------
D-----------4---2p0------------------5---4-2----------------
A-------------------4p0-3h4---0-0--0---0-----3h4------------
E--------------------------------------------------3h4-0-3h4


E-----------------------------------------------------------
B-----------------------------------------------------------
G-----------------------------------------------------------
D-----------2---------------------------3-------------------
A-2-4-2-4h5---5p4-2-----------3-5-3-5h6---6p5-3-------------
E-------------------3h4-1-4h5-------------------4h5-0-2-3h4-


E-----------------------------------------------------------
B---------------------------------------------------------5-
G-----------------------------------------------------5h6---
D-------------------------4-----5-----6-----7-----8-7-------
A-2-4p2---------3-5p3-------------------------------7-------
E-------1-3-4h5-------1/2---2/3---3/4---4/5---5/6---5-------


E---5------------------------------------------------------
B-7---8-5-8\7p5--------------------------------------------
G---------8\7p5---5-6--------------------------------------
D---------------7-----7-5----------------------------------
A-------------------------7-6-5p3p0-3-4--------------------
E---------------------------------------5-3-5b(6)r5b(6)r0--


Solo Section

E---0---------------------------------------------------------
B-3-3-3---3-----------5/7---7\5---5/7---7\5---5---------------
G-2-2-2---2-----7\5---5/7---7\5---5/7---7\5---5----2-2-2------
D-0-0-0---0----------------------------------------2-2-2------
A-------3---7/9-----7-----9-----7-----9-----7---7\-0-0-0------
E--------------------------------------------------------3b(4)


E------------------------------------------------------------
B------------------12/14----14\12----12/14----14\12----12----
G-2-------14\12----12/14----14\12----12/14----14\12----12----
D-2----------------------------------------------------------
A-0-14/16-------14-------16-------14-------16-------14----14-
E------------------------------------------------------------


E--------------------------10-------------10-----------------
B---7-7-7---7-7-7---7------10-12-10-------10----12-10--------
G---7-5-7p5-7-5-7---5---------12-10h11----------12-10h11-----
D-----------------7---7/12-------------12----12----------12--
A-5----------------------------------------------------------
E------------------------------------------------------------


E-10\----5---------5-------------8b(9)-8b(9)-5---------------
B-10\----5-7-5-----5---7-5-----7-7b(8)-7b(8)-5-8\7p5---7-5---
G----------7-5h6-------7-5h6---7---------------8\7p5---7-5h6-
D------7---------7---7-------7-----------------------7-------
A------------------------------------------------------------
E------------------------------------------------------------


E------------------------------------------------------------
B------------------------------------------------------------
G------------------------9-------9------------17------16-----
D-7/--------9-11p9-11h12---11h12---11h12-0-19----0-17----0-16
A----7-9h11--------------------------------------------------
E------------------------------------------------------------


E------------------------------------------------------------
B------------------------------------------------------------
G-14------12------11-2-2-2-------2---------4p2p0-------------
D----0-14----0-10----2-2-2-------2-----2-4-------4p2p0-------
A--------------------0-0-0-------0-3h4-----------------4p2p0-
E--------------------------3b(4)-----------------------------


E--------------0---------------------------------------------
B------------3-3-3---3---------------------------------------
G-------2-2--2-2-2---2-----------------------------------4-5-
D-------2-2--0-0-0---0-----------------------4-5-7-4-5-7-----
A-------0-0--------3-------------3-5-7-3-5-7-----------------
E-3b(4)----------------10\-3-5-7-----------------------------


E----------------------5-7-8/9-8-7-5-------------------------
B----------5-7-8-5-7-8---------------8-7-5-------------------
G-7-4-5-7----------------------------------8\7p5---7---5h6---
D------------------------------------------------7---7-----7-
A------------------------------------------------------------
E------------------------------------------------------------


E------------------------------------------------------------
B-------------------------------------------------13\12-11p10
G-------------------------------------------11-14------------
D-5--------------------------------------12------------------
A---7-6\5-3---3-4----------------9-12p10---------------------
E-----------5-----5-3b(4)-5-5-10-----------------------------


E-------------------------------------------------------------
B-9h10--------------------------------------------------------
G------13\12p10-12----10h11-----------------------------------
D------------------12-------12-10-----------------------------
A---------------------------------12-11-10p8----8-9-----------
E--------------------------------------------10-----10-8-11/12


E-----------------------------------------------------15----14
B-----------------------------------14----14----15------------
G---------9-12\11p9----11----9-9/12----12----12----12----12---
D-9-10-11-----------11----11----------------------------------
A-------------------------------------------------------------
E-------------------------------------------------------------


E----12------------12-----------------------------------------
B-------15-15b(17)----15-12-----------------------------------
G-12------------------------15\14p12----14-12-13--------------
D------------------------------------14----------14-12---11h12
A-----------------------------------------------------11------
E-------------------------------------------------------------


E-------------------------------------------------------------
B-------13-12p11----------------------------------------------
G-11-14----------13/14-11----------------------------------4--
D-------------------------12-10--------------------4-5-6-7----
A-------------------------------12-11-10-9-----4-7------------
E------------------------------------------4h5----------------


E---------5-8b(9)-8b(9)-5---------------------------------------
B-----5-7---7b(8)-7b(8)---5-------------------2-------2------2--
G-5h6-----------------------7-5h6-------------0---2---0---0-----
D---------------------------------7-5---------2-----2-2-2-----2-
A-------------------------------------7-5-4-0---0-----1-----1---
E---------------------------------------------------------------

                                                     Bigsby Dip
E-------------------------------------------------------------
B---3-------4-------7-----5-------5-------5-----7-------8\7/8-
G---2---2---2-2-----5-----4---4-------2---------8---8---7\6/7-
D---4-----4-4-------7-7---6-----6---4-------4---7-----7-6\5/6-
A-2---2-----3---3/6-----4---4---------------------------7\6/7-
E---------------------------------2-----2-----7---7-----------


E---------------------------------------------12--------------
B---------------------------------------------------14---12-13
G--------------------------------9-11-9-11/13----------14-----
D-------------------7-9-7-7-9/11-----------------14-----------
A-------7-9p7-5-7/9-------------------------------------------
E-5-8/9-------------------------------------------------------


E----------------------------12-15-14-------14-17-14-15-16-17-
B-14----------------------14-------------15-------------------
G----14-12----------12-15-------------16----------------------
D----------14-11-14-------------------------------------------
A-------------------------------------------------------------
E-------------------------------------------------------------


E-14----------------------17p16p14----------------------------
B----16-13----16-13----16----------17p15p14-------------------
G----------14-------14----------------------16-14-12----------
D----------------------------------------------------16-14-13-
A-------------------------------------------------------------
E-------------------------------------------------------------


E-------------------------------------------------------------
B----------------------------------------------------------13-
G-16-14-12----------------------------------------13-14-16----
D----------16-14-13-------------------13-14-15-16-------------
A-------------------16-14-13----14-16-------------------------
E----------------------------14-------------------------------


E------------------------12------10---------------------------
B-14-15-17-15----12b(14)----(14)----(14)r12p10----------------
G-------------16-------------------------------12-10-11-------
D-------------------------------------------------------12-10-
A-------------------------------------------------------------
E-------------------------------------------------------------


E------------------------------14-13-12-2-2-2---2-------------
B---------------------------------------3-3-3---3------7\5----
G----------------------9-11/14-14-13-12-2-2-2---2------7\5----
D------------7-9-10h11------------------0-0-0---0-------------
A-12-11p10-9----------------------------------3----7/9-----7--
E-------------------------------------------------------------


E-------------------------------------------------------------
B-5/7---7\5---5/7---7\5---5-----------------------------------
G-5/7---7\5---5/7---7\5---5---2-2-2---2-----------------------
D-----------------------------2-2-2---2-------------------4-5-
A-----9-----7-----9-----7---7-0-0-0---0-------4-5-7-4-5-7-----
E-----------------------------------3---3-5-7-----------------


E---------------------------------5-----------5-----------5-7-
B---------------------5-7-8-5-7-8---8-7-5-7-8---8-7-5-7-8-----
G---------4-6-7-4-6-7-----------------------------------------
D-7-4-5-7-----------------------------------------------------
A-------------------------------------------------------------
E-------------------------------------------------------------


E-9--------7-------------7-8-11---------8---------------8-10--
B---7-8-10---10-8-7-8-10--------8-10-12---12-10-8-10-12-------
G-------------------------------------------------------------
D-------------------------------------------------------------
A-------------------------------------------------------------
E-------------------------------------------------------------


E-13---------10---------------------12------10----------------
B---10-12-13----13-12-10h12-12b(14)----(14)----(14)r12p10-----
G---------------------------------------------------------11--
D-------------------------------------------------------------
A-------------------------------------------------------------
E-------------------------------------------------------------


E---------------------9-12-11-10-8/9---------------------------
B-10-12----10------10----------------10------------------------
G-------11----9/11----------------------11-10\4---5-6----------
D-----------------------------------------------7-----7-5------
A---------------------------------------------------------5h6h7
E--------------------------------------------------------------


E------------------------------------5-----------------------
B------------------------------3-5/7---7-6-5-----------------
G-------4-7-6-0-9-0-8-7b(9)r7\---------------7-5h7p5---------
D-4-5-6----------------------------------------------7-0-5-4-
A------------------------------------------------------------
E------------------------------------------------------------


E-----9---8\7---7-5---4---3-------------
B---------------------------7---5---3-2-
G-6/9---8-----7-----5---4---------------
D---------------------------7-5---4---2-
A---------------------------------------
E---------------------------------------

Repeat Intro

Repeat Head until the E Chord then substitute

E-----------------------------------------------------------
B-----------------------------------------------------------
G-----------------------------------------------------------
D-------------------2-----------------------------3---------
A---------2-4p2-4h5---5p4p2-------------3-5p3-5h6---6p5p----
E-0-2-3h4-------------------3h4-1-3-4h5------------------4h5


E-----------------------------------------------------------
B-----------------------------------------------------------
G-----------------------------------------------------------
D-------------------2-----------------------------3---------
A---------2-4p2-4h5---5p4p2-------------3-5p3-5h6---6p5p----
E-0-2-3h4-------------------3h4-1-3-4h5------------------4h5


E-----------------------------------------------------------
B-----------------------------------------------------------
G-----------------------------------------------------------
D-----------------------------------------------------------
A---------2-4p2---------3-5p3-----4-----5-----6-----7-----8-
E-0-2-3h4-------1-3-4h5-------1/2---2/3---3/4---4/5---5/6---

                                                Bigsby Dip
E-----------------------------------------------------------
B------------------------------------------------13\12/13---
G------------------------------------------------13\12/13---
D------------------------------------------------12\11/12---
A-----9-----10-----11------12-------13-------14-------------
E-6/7---7/8----8/9----9/10----10/11----11/12-----12\11/12---

  Let Ring    Final chord, play harmonics 12 frets above
E---------0-----------------------12-------------------
B-------0--------------------12------------------------
G-----6-----------------18-----------------------------
D---5--------------17----------------------------------
A-0-----------12---------------------------------------
E--------------------------------------------------------




West Side Winders Tabs & Chords



West Side Winders Tabs, Tablatures, Chords, Lyrics

Buy West Side Winders CD
West Side Winders
Buy West Side Winders CD

  1. West Side Winders - Little Doggies Tabs



cowboylyrics.com
All lyrics are property and copyright of their owners. All lyrics provided for educational purposes only.