Whiskey Myers, Calm Before The Storm Tabs, Chords, Lyrics

Whiskey Myers, Calm Before The Storm Tabs, Chords

 SITE MENU
 Request Tabs
 Add/Correct Tabs
 DMCA Policy
 Country Sheet Music
0

BROWSE LYRICS AND TABS BY ARTIST/BAND NAME: SEARCH HERE:
A B C D E F G H I J K L M N O P Q R S T U V W X Y Z #
 

Whiskey Myers - Calm Before The Storm (Tabs)


Whiskey Myers CD
Whiskey Myers Sheet music
Whiskey Myers Posters
Intro (John Jeffers plays this) May not be EXACTLY how he plays it note for note but it's pretty dang close! (7)=the fifth 

fret bent up to the D note on the 7th fret
e|-------------3------------3------------3-----------3-----|
b|--3----3-------3------3-----5------3-----3-----3---------|
g|--5b(7)--(7)-----5rb----5-----5p4----4-----4h5---5-------|
D|---------------------------------------------------------|
A|---------------------------------------------------------|
E|---------------------------------------------------------|

Then Cody Tate comes in with this:

e|-------------------------------------------------------------------------------------------------------------|
b|--10b----10brb-8--------------------------------------6h8---10b---11b----10brb--8----------------------------|
g|-----------------------7brb-5/4-----------------4/5-7--------------------------------7brb--5/4---------------|
D|------------------------------------7brb-5---------------------------------------------------------7brb-5----|
A|-------------------------------------------------------------------------------------------------------------|
E|-------------------------------------------------------------------------------------------------------------|

Then the verses are pretty much just G and C:
G              C
Broke down in Stone Mountain Georgia
G		   C
Many miles from my home
G		      C
A trail of tears that I left searchin
G               C
Some yours and my own
G 	        C
So I'm out hear prayin to Jesus
G		   C
for a Ghost in the night
G			C
Cuz all they want is a simple dollar
G		    C
and a song I won't write

Chorus:
e|--------------------15---15-/------------------------|
b|--------------------18b--18b/------------------------|
g|-----------------------------------------------------|
D|--3-4-5----------------------------------------------|
A|--3-4-5----------------------------------------------|
E|--1-2-3----------------------------------------------|
               Momma!  .
e|-----------------------------------------------------|
b|-----------------------------------------------------|
g|-----------3-5br-3-5b--------------------------------|
D|--3-4-5----------------------------------------------|
A|--3-4-5----------------------------------------------|
E|--1-2-3----------------------------------------------|
  	     Let it be!
Bb		C	   Bb   F   F F# G
There ain't no man gonna take this from me (listen to the song to get the last chords right with lyrics, repeat the whole 

thing for the rest of the chorus)

Bridge:
F    C  G
Let it storm
F       	C	     G
I've got a few things on my mind
	     F	         C		G
They wanna take it and break it and make it their own and it's 
F     C	      G
time I keep mine

Interlude before the solo:
e|-----------------------------------------------------|
b|-----------------------------------------------------|
g|-------------------------------------------3---------|
D|-----5-3-0------3h5-------5-3-0----------------------|(play several times until solo kicks in)
A|------------3h5-------------------3h5----------------|
E|--3--------------------3-----------------------------|

Riff played during the solo (sorry don't have the solo yet)
e|-----------------------------------------------------|
b|-----------------------------------------------------|
g|---5-5-5-3b-----3-5brb3-5p3------5-5-5-3b----------3-|and there are basically different variations of licks that John 
D|---5-5------5---------------5p3--5-5------5----3-5---|Jeffers plays after the first part of the riff.
A|---------------------------------------------5-------|
E|-----------------------------------------------------|


Whiskey Myers Tabs & ChordsWhiskey Myers Lyrics



Whiskey Myers Tabs, Tablatures, Chords, Lyrics

Buy Whiskey Myers CD
Whiskey Myers
Buy Whiskey Myers CD

  1. Whiskey Myers - Anna Marie Chords
  2. Whiskey Myers - Ballad Of A Southern Man Chords
  3. Whiskey Myers - Bar, Guitar And A Honky Tonk Crowd Chords
  4. Whiskey Myers - Broken Window Serenade Chords
  5. Whiskey Myers - Calm Before The Storm Tabs
  6. Whiskey Myers - Dyin' For Tonight Chords
  7. Whiskey Myers - Gone Away Chords
  8. Whiskey Myers - Gone Away (No Capo - Accurate) Chords
  9. Whiskey Myers - Goodbye Girl Chords
  10. Whiskey Myers - Guitar Picker Chords
  11. Whiskey Myers - Kyle Hope Chords
  12. Whiskey Myers - Lonely East Texas Nights (solo) Tabs
  13. Whiskey Myers - Lonely East Tx Nights Chords
  14. Whiskey Myers - Melancholy Blues Chords
  15. Whiskey Myers - Nobody Knows Her Name Chords
  16. Whiskey Myers - Old Broke Guitar Picker Chords
  17. Whiskey Myers - Road Of Life Chords
  18. Whiskey Myers - Song For You Tabs
  19. Whiskey Myers - Summer 2005 Chords
  20. Whiskey Myers - Turn It Up Tabs
  21. Whiskey Myers - Virginia Chords



cowboylyrics.com
All lyrics are property and copyright of their owners. All lyrics provided for educational purposes only.