Chris Young, Aw Naw Tabs, Chords, Lyrics

Chris Young, Aw Naw Tabs, Chords

 SITE MENU
 Request Tabs
 Add/Correct Tabs
 DMCA Policy
 Country Sheet Music
0

BROWSE LYRICS AND TABS BY ARTIST/BAND NAME: SEARCH HERE:
A B C D E F G H I J K L M N O P Q R S T U V W X Y Z #
 

Chris Young - Aw Naw (Bass Tabs)


Chris Young CD
Chris Young Sheet music
Chris Young Posters
Tuning: Standard

Verse

G|--------------------------------------------------|
D|--------------------------------------------------|
A|--6--6--6--6--6--6--6--6--6--6--6--6--------0--0--| x3
E|--------------------------------------3--3--------|

Pre-Chorus

G|--------------------------|
D|--------------------------|
A|--3-------5--3----2-2-2-2-|
E|-------3------------------|

Chorus 

G|--------------------------------------------------|
D|--------------------------------------------------|
A|--6--6--6--6--6--6--6--6--6--6--6--6--------0--0--| x2
E|--------------------------------------3--3--------|

Bridge

I'm not sure about this riff right here but it sounds pretty close to the recording

G|-----------------------------------|
D|-----------------------------------|
A|--6-6-6-----------0-0-0-3-3-3-3-3--| x5
E|--------3-3-3-3-3------------------|

G|-----------------------|
D|-----------------------|
A|--6-6-6-------0--------|
E|--------3-3-3----------|

G|--------------------------------------------------|
D|--------------------------------------------------|
A|--6--6--6--6--6--6--6--6--6--6--6--6--------0--0--|
E|--------------------------------------3--3--------|

Chorus 3

no bass until Chris sings "Aw Naw" for the second time after the guitar solo

G|--------------------------------------------------|
D|--------------------------------------------------|
A|--6--6--6--6--6--6--6--6--6--6--6--6--------0--0--| x3
E|--------------------------------------3--3--------|

Verse
Pre-Chorus
Chorus
Verse
Pre-Chorus
Chorus
Bridge
Chorus 3


Have Fun


| /  slide up
| \  slide down
| h  hammer-on
| p  pull-off
| ~  vibrato
| +  harmonic
| x  Mute note
=============================================================================


Young Chris Tabs & ChordsYoung Chris Lyrics



Young Chris Tabs, Tablatures, Chords, Lyrics

Buy Young Chris CD
Young Chris
Buy Young Chris CD

  1. Young Chris - A.m. Chords
  2. Young Chris - Aw Naw Chords
  3. Young Chris - Aw Naw Bass Tabs
  4. Young Chris - Aw Naw (intro) Tabs
  5. Young Chris - Aw Naw v2 Chords
  6. Young Chris - Beer Or Gasoline Chords
  7. Young Chris - Center Of My World Chords
  8. Young Chris - Chiseled In Stone Chords
  9. Young Chris - Devil's Thumbprint Chords
  10. Young Chris - Don't Leave Her (if You Can't Let Her Go) Chords
  11. Young Chris - Drinkin' Me Lonely Chords
  12. Young Chris - Drinkin' Me Lonely (intro) Tabs
  13. Young Chris - Flashlight Chords
  14. Young Chris - Flowers Chords
  15. Young Chris - Flowers v2 Chords
  16. Young Chris - Forgiveness Chords
  17. Young Chris - Gettin' You Home Chords
  18. Young Chris - Getting You Home (intro) Tabs
  19. Young Chris - Getting You Home v2 Chords
  20. Young Chris - Goodbye Chords
  21. Young Chris - Hold You To It Chords
  22. Young Chris - I Can Take It From There Chords
  23. Young Chris - I Wish I Was Lyin' Chords
  24. Young Chris - I'm Gonna Change That Chords
  25. Young Chris - I'm Headed Your Way, Jose Chords
  26. Young Chris - Im Over You Chords
  27. Young Chris - It Takes A Man Chords
  28. Young Chris - Lay It On Me Chords
  29. Young Chris - Lonely Etes Chords
  30. Young Chris - Lost Chords
  31. Young Chris - Love Don't Let Me Down Chords
  32. Young Chris - Neon Chords
  33. Young Chris - Nothin' But The Cooler Left Chords
  34. Young Chris - Old Love Feels New Chords
  35. Young Chris - Only If You Want To Chords
  36. Young Chris - Perfect To Me Chords
  37. Young Chris - Rainy Night In Georgia Chords
  38. Young Chris - Rose In Paradise Chords
  39. Young Chris - Save Water, Drink Beer Chords
  40. Young Chris - She's Got This Thing About Her Chords
  41. Young Chris - Small Town Big Time Chords
  42. Young Chris - Text Me Texas Chords
  43. Young Chris - That Makes Me Chords
  44. Young Chris - The Dashboard Chords
  45. Young Chris - The Man I Want To Be Chords
  46. Young Chris - The Man I Want To Be (intro) Tabs
  47. Young Chris - The Shoebox Chords
  48. Young Chris - Tomorrow Chords
  49. Young Chris - Tomorrow (corrected) Chords
  50. Young Chris - Voices Chords
  51. Young Chris - Voices (capo Iii) Chords
  52. Young Chris - When She's On Chords
  53. Young Chris - White Lightning Hit The Family Tree Chords
  54. Young Chris - Who I Am With You Chords
  55. Young Chris - Who's Gonna Take Me Home Chords
  56. Young Chris - You Chords
  57. Young Chris - You're Gonna Love Me Chords



cowboylyrics.com
All lyrics are property and copyright of their owners. All lyrics provided for educational purposes only.