Cowboy Lyrics and Chords Country Lyrics, Chords and Tabs Source #1 - CowboyLyrics.com
 MENU
  Request Lyrics
  Add/Correct Lyrics
  Links Page
  Contact Us
  Privacy Policy
  DMCA Policy
 MERCHANDISE
  Country CDs
  Country Sheet Music


BROWSE LYRICS AND TABS BY ARTIST/BAND NAME: SEARCH:
A B C D E F G H I J K L M N O P Q R S T U V W X Y Z #
 

Legacy tabs - The Cadillac Three

Click to play this song!
The Cadillac Three Sheet music
                [Intro]

E|---------------------------------------------------------------------------------------------------------|
B|--9-----9--------9----------------------------------------9-----9--------9-------------------------------|
G|-----0--------0---8-9--0-----0--------0--6----6--------6-----0--------0-----8-----8--------8--9--8--6----|
D|--------------------------0--------0--------0-------0--------------------------0--------0--------------0-|
A|--7--------7----------------------------------------------7--------7-------------------------------------|
E|-----------------7--9--0--------0--------5-------5--------------------------7--------7--------9--7--5----|


E|----------------|
B|----------------|
G|----6--------6--|
D|----------0-----|
A|----------------|
E|-------5--------|

[Verse]
E|---------------------------------------------------------------------------------------------------------|
B|--9-----9--------9----------------------------------------9-----9--------9-------------------------------|
G|-----0--------0-----8--9--0-----0-----0--6----6--------6-----0--------0-----8-----8--------8--9--8--6----|
D|-----------------------------0-----0--------0-------0--------------------------0--------0--------------0-|
A|--7--------7----------------------------------------------7--------7-------------------------------------|
E|--------------------7--9--0-----0--------5-------5--------------------------7--------7--------9--7--5----|


E|----------------|
B|----------------|
G|----6--------6--|
D|----------0-----|
A|----------------|   x2
E|-------5--------|


[Chorus]

E|-----------------------------------------------------------------------------|
B|--------------------10-----10--------10--9-----9--------9--9-----9--------9--|
G|--0-----0--------0------0---------0---------0--------0--------0--------0-----|
D|-----0--------0--------------------------------------------------------------|
A|--------------------9----------9---------7--------7--------7--------7--------|
E|--0--------0-----------------------------------------------------------------|


E|-----------------------------------------------------------------------------|
B|--------------------10-----10--------10--9-----9--------9--------------------|
G|--8-----8--------8------0---------0---------0--------0-----8-----8--------8--|
D|-----0--------0-----------------------------------------------0--------0-----|
A|--------------------9----------9---------7--------7--------------------------|
E|--7--------7-----------------------------------------------7--------7--------|

E|-----------------------------------------------------------------------------|
B|--------------------10-----10--------10--9-----9--------9--9-----9--------9--|
G|--0-----0--------0------0---------0---------0--------0--------0--------0-----|
D|-----0--------0--------------------------------------------------------------|
A|--------------------9----------9---------7--------7--------7--------7--------|
E|--0--------0-----------------------------------------------------------------|

E|------------------------------------------------------------------------------------|
B|------------------------------------------------------------------------------------|
G|--9--8--6--0--6-----6--------6--6-----6--------6----9--8--6--0--6-----6--------6--8-|
D|-----------------0--------0--------0--------0----------------------0--------0-------|
A|------------------------------------------------------------------------------------|
E|--9--7--5--0--5--------5--------5--------5----------9--7--5--0--5--------5--------7-|            



The Cadillac Three ChordsThe Cadillac Three Lyrics



The Cadillac Three Tabs, Tablatures, Chords, Lyrics

Buy The Cadillac Three CD
The Cadillac Three

  1. The Cadillac Three - Drunk Like You Chords
  2. The Cadillac Three - Legacy Tabs
  3. The Cadillac Three - Runnin' Red Lights Chords
  4. The Cadillac Three - The South Chords
  5. The Cadillac Three - The South Chords



© 2018 cowboylyrics.com
All lyrics are property and copyright of their owners. All lyrics provided for educational purposes only.