America's Favorite Mustard, Freebird Popeye Tabs, Chords, Lyrics

America's Favorite Mustard, Freebird Popeye Tabs, Chords

 SITE MENU
 Request Tabs
 Add/Correct Tabs
 DMCA Policy
 Country Sheet Music
0

BROWSE LYRICS AND TABS BY ARTIST/BAND NAME: SEARCH HERE:
A B C D E F G H I J K L M N O P Q R S T U V W X Y Z #
 

America's Favorite Mustard - Freebird Popeye (Tabs)


America's Favorite Mustard CD
America's Favorite Mustard Sheet music
America's Favorite Mustard Posters
Chords Used : G,D,Em,F,and C....I play the song Freebird exactly the way 
Skynyrd Plays it...Except before it changes to the part where the solo 
begins...i added a little something and a lot of People have been wanting my 
band to post it so here is that part


3-2-3-------------3-2-3--2-3-5-0-----5-3-2-------
----------3-1-0-3--------------------------3-3---
------0-0------------------------2-2-------------
-------------------------------------------------
-------------------------------------------------
-------------------------------------------------

Now Real Fast without hammer ons or Pulloffs
-0-2-3-2-0---0-----------------------------------
-----------3---3-1-0-1-0-----------------------0-
-------------------------2-0-2-0-------0---2-0---
---------------------------------4-2-0---4-------
-------------------------------------------------
-------------------------------------------------

       Harmonic       Now go into the Solo
---------\/---------------------------------------
---1-0-------------------------------------------
-2-----0-12---------------------------------------
-------------------------------------------------
-------------------------------------------------
-------------------------------------------------



America's Favorite Mustard Tabs & Chords



America's Favorite Mustard Tabs, Tablatures, Chords, Lyrics

Buy America's Favorite Mustard CD
America's Favorite Mustard
Buy America's Favorite Mustard CD

  1. America's Favorite Mustard - Freebird Popeye Tabs



cowboylyrics.com
All lyrics are property and copyright of their owners. All lyrics provided for educational purposes only.