The Avett Brothers, Bella Donna Tabs, Chords, Lyrics

The Avett Brothers, Bella Donna Tabs, Chords

 SITE MENU
 Request Tabs
 Add/Correct Tabs
 DMCA Policy
 Country Sheet Music
0

BROWSE LYRICS AND TABS BY ARTIST/BAND NAME: SEARCH HERE:
A B C D E F G H I J K L M N O P Q R S T U V W X Y Z #
 

The Avett Brothers - Bella Donna (Chords)


The Avett Brothers CD
The Avett Brothers Sheet music
The Avett Brothers Posters
Capo III

e---------------------------------------------------------------------------------------------------------------------------
B---0-------------------------------------0-----------1--0-------0--------------------------------------------------0-------
G-------0---------0-----0-----0-----0--------0--------------2----------0-----0---0---0---0----0-------1-0---2----------------
D-----------------0-----0-----0-----0-----------------------------------2-----2---2---2---2-------2-------------------------
A---------------------------------------------------------------------3------3----3---3---3-----3-----3--------3--------------
E---3--------3-------3-----3-----3-------3--------3---------3-----------------------------------------------------------------

                                                                             (strum)                                                        <---(repeat)
e-----------------------------------------------------------------------------------------------------------------------------------
B----------------------------------0-----------1--0------0-----------------------------------------------------------------0-------
G------0----0-----0----0----0--------0--------------2-----------0-------------0----0----0----0----0----0----0----0--------0-----
D------0----0-----0----0----0------------------------------------2------2-----2----2----2----2----2----2----2----2----------------
A------------------------------------------------------------------3---------3-----3----3----3----3----3----3----3-----------------
E---3-----3-----3----3----3------3--------3---------3---------------------------------------------------------------------3------

Baby I asked you not to keep me waiting
I told you now to keep me waiting
Now the afternoon is fading on

Donna, Bella Donna have you seen me
Have you ever really seen me
Like I want you to see me now

Lonesome like you were when you were sixteen
But maybe even I weren't listening
Did I help when I was kissing you

Donna, Bella Donna are you listening
Are you ever really listening
Like I want for you to listen now 


Avett Brothers Tabs & ChordsAvett Brothers Lyrics



Avett Brothers Tabs, Tablatures, Chords, Lyrics

Buy Avett Brothers CD
Avett Brothers
Buy Avett Brothers CD

  1. Avett Brothers - 40 East Chords
  2. Avett Brothers - A Change Is Gonna Come Chords
  3. Avett Brothers - A Fathers First Spring Chords
  4. Avett Brothers - A Gift For Melody Anne Chords
  5. Avett Brothers - A Lot Of Moving Chords
  6. Avett Brothers - A Lover Like You Chords
  7. Avett Brothers - A Slight Figure Of Speech Chords
  8. Avett Brothers - All My Mistakes Chords
  9. Avett Brothers - And It Spread Chords
  10. Avett Brothers - At The Beach Chords
  11. Avett Brothers - Bella Donna Chords
  12. Avett Brothers - Black, Blue Chords
  13. Avett Brothers - Die Die Die Chords
  14. Avett Brothers - Do You Love Him Chords
  15. Avett Brothers - I And Love And You Chords
  16. Avett Brothers - I Killed Sally's Lover Chords
  17. Avett Brothers - January Wedding Chords
  18. Avett Brothers - Live And Die Chords
  19. Avett Brothers - Living Of Love Chords
  20. Avett Brothers - Love Like The Movies Chords
  21. Avett Brothers - Me and God Chords
  22. Avett Brothers - Murder in the City Chords
  23. Avett Brothers - My Last Song to Jenny Chords
  24. Avett Brothers - Pretty Girl From Locust Chords
  25. Avett Brothers - Pretty Girl From Raleigh Chords
  26. Avett Brothers - Salina Chords
  27. Avett Brothers - Shame Chords
  28. Avett Brothers - Smoke In Our Lights Chords
  29. Avett Brothers - Sorry Man Chords
  30. Avett Brothers - Swept Away Chords
  31. Avett Brothers - Tear Down the House Chords
  32. Avett Brothers - The Greatest Sum Chords
  33. Avett Brothers - The Traveling Song Chords
  34. Avett Brothers - The Weight Of Lies Chords
  35. Avett Brothers - Tin Man Chords
  36. Avett Brothers - Walking For You Chords



cowboylyrics.com
All lyrics are property and copyright of their owners. All lyrics provided for educational purposes only.