David Ball, Missing Her Blues Tabs, Chords, Lyrics

David Ball, Missing Her Blues Tabs, Chords

 SITE MENU
 Request Tabs
 Add/Correct Tabs
 DMCA Policy
 Country Sheet Music
0

BROWSE LYRICS AND TABS BY ARTIST/BAND NAME: SEARCH HERE:
A B C D E F G H I J K L M N O P Q R S T U V W X Y Z #
 

David Ball - Missing Her Blues (Chords)


David Ball CD
David Ball Sheet music
David Ball Posters

MISSING HER BLUES (David Ball - Luke Reed)
performed by David Ball (AMIGO - 2001)


(Chorus)

           A                                            E
I got the missing her all day, heading for a heartache blues

   E                                             A
I tell myself it's over but I know it's just no use

          A
'Cause I wake up every morning with the same old broken hearted

  A7                       D
Feeling that I just can't lose

            E
It's those missing her all day, every day, in more ways

                          A
Heading for a heartache blues



 A                    D
I know what's coming, it won't be long

     E                             A
I'm heading for the bottom like a sinking stone

  A                  D
Goodbye note that's all she left

     E
And poor me all by myself



(Repeat Chorus)


 A                D
Sun comes up the same old thing

 E                       A
Ain't no doubt what the day will bring

  A                    D
Walking the floor and calling her name

     E
The sun goes down, I start all over again



(Repeat Chorus)


GUITAR TAB

INTRO

                __    __     ________    __    __     ________    __    __
   |     |     |  |  |  |   |  |  |  |  |  |  |  |   |  |  |  |  |  |  |  |
|---------------/-9--9--9|--9-\7--7--7-----5--5--5|--5-\4--4--4------------|
|---------------/10-10-10|-10-\9--9--9-----7--7--7|--7-\5--5--5-----7--7--7|
|------------------------|------------------------|-----------------7--7--7|
|------------------------|------------------------|------------------------|
|------------------------|------------------------|------------------------|
|------------------------|------------------------|------------------------|


    ________    ________                 ________
   |  |  |  |  |  |  |  |   |     |     |  |  |  |   |
|------------------------|--------------9-10--9---|------------------------|
|--7--5--5--3--3--0--0--2|--2----------x--------12|-10---------------------|
|--7--6--6--4--4--1--1--2|--2---------x-----------|------------------------|
|------------------------|------------------------|------------------------|
|------------------------|------------------------|------------------------|
|------------------------|------------------------|------------------------|


Ball David Tabs & ChordsBall David Lyrics



Ball David Tabs, Tablatures, Chords, Lyrics

Buy Ball David CD
Ball David
Buy Ball David CD

  1. Ball David - 12/12/84 Chords
  2. Ball David - A Grain Of Salt Chords
  3. Ball David - A Walk on the Wild Side of Life Chords
  4. Ball David - Amigo Chords
  5. Ball David - Bad Day For The Blues Chords
  6. Ball David - Blowin Smoke Chords
  7. Ball David - Bottle That Pours The Wine Chords
  8. Ball David - Dont Think Twice Chords
  9. Ball David - Down At The Bottom Of A Broken Heart Chords
  10. Ball David - Freewheeler Chords
  11. Ball David - Honky Tonk Healin Chords
  12. Ball David - I Never Did Know Chords
  13. Ball David - I Want To With You Chords
  14. Ball David - I'm Just A Country Boy Chords
  15. Ball David - Look What Followed Me Home Chords
  16. Ball David - Missing Her Blues Chords
  17. Ball David - Nobody Told Me Chords
  18. Ball David - Private Malone Chords
  19. Ball David - Riding With Private Malone Chords
  20. Ball David - She Always Talked About Mexico Chords
  21. Ball David - Speed Of A Fool Chords
  22. Ball David - The Bottle That Pours the Wine Chords
  23. Ball David - Thinkin Problem Chords
  24. Ball David - Too Much Blood In My Alcohol Level Chords
  25. Ball David - Walk On Wild Side Of Life Chords
  26. Ball David - Watching My Baby Not Coming Back Chords
  27. Ball David - When I Get Lonely Chords
  28. Ball David - When The Thought Of You Chords
  29. Ball David - Whenever You Come Back To Me Chords



cowboylyrics.com
All lyrics are property and copyright of their owners. All lyrics provided for educational purposes only.