Greg Bates, Did It For The Girl (Lead) Tabs, Chords, Lyrics

Greg Bates, Did It For The Girl (Lead) Tabs, Chords

 SITE MENU
 Request Tabs
 Add/Correct Tabs
 DMCA Policy
 Country Sheet Music
0

BROWSE LYRICS AND TABS BY ARTIST/BAND NAME: SEARCH HERE:
A B C D E F G H I J K L M N O P Q R S T U V W X Y Z #
 

Greg Bates - Did It For The Girl (Lead) (Tabs)


Greg Bates CD
Greg Bates Sheet music
Greg Bates Posters
Key:  F
/ = slide up to note
\ = slide down from note
h = hammer on
p = pull off
b = bend to note in ( )
* = palm mute note
~ = vibrato

Intro:

  Guitar 1          Play the high, choppy rhythm after the opening lick (alternate b/t F and Dm)
			  F                Dm             F              Dm             F
e-------------------------------------------------------------------------------------------------
B-------------------------------------------------------------------------------------------------
G-------------------------------------------------------------------------------------------------
D-------------------------------------------------------------------------------------------------
A---3/5\3-----3-----------------------------------------------------------------------------------
E---------3/5----1--------------------------------------------------------------------------------

  Guitar 2
e-------------------------------------------------------------------------------------------------
B---6---6-----------------------------------------------------------------------------------------
G---5h7-5-----5------2p0--------------2p0-------------2p0-----------2p0---------------------------
D---------5/7---3--------3------3---------3-------3-------3-----3-------3-------------------------
A---------------------------3/5----5--------3h5p3-----------3/5---5-------3/5\3-------------------
E-------------------------------------------------------------------------------1~----------------

Solo (after the steel solo):
  F                    Dm                     Bb              C
e-------------------------------------------------------------------------------------------------
B-----------------------6---6---6---6----------------------------1h3--5h6--6/8--10h13--13---------
G-----------------5-----7h9-7---5h7-5----------3-3---3-3-3/5-----2h3--5h7--7/9--10h12--12b(14)~~--
D-------3-----5/7---7*----------------7\5p3----3-5---3-5-5/7--------------------------------------
A---3h5---5*--------------------------------5------5----------------------------------------------
E-------------------------------------------------------------------------------------------------


Bates Greg Tabs & ChordsBates Greg Lyrics



Bates Greg Tabs, Tablatures, Chords, Lyrics

Buy Bates Greg CD
Bates Greg
Buy Bates Greg CD

  1. Bates Greg - Did It For The Girl Chords
  2. Bates Greg - Did It For The Girl (Lead) Tabs
  3. Bates Greg - Fill In The Blank Chords
  4. Bates Greg - Lost In Caroline Chords



cowboylyrics.com
All lyrics are property and copyright of their owners. All lyrics provided for educational purposes only.