Bob Wootton, You Walked Tall Tabs, Chords, Lyrics

Bob Wootton, You Walked Tall Tabs, Chords

 SITE MENU
 Request Tabs
 Add/Correct Tabs
 DMCA Policy
 Country Sheet Music
0

BROWSE LYRICS AND TABS BY ARTIST/BAND NAME: SEARCH HERE:
A B C D E F G H I J K L M N O P Q R S T U V W X Y Z #
 

Bob Wootton - You Walked Tall (Chords)


Bob Wootton CD
Bob Wootton Sheet music
Bob Wootton Posters
YOU WALKED TALL (WHEN YOU WALKED THE LINE)
-B.Wootton-
"Guaranteed Cash" (2006)

(This song is to the tune of Johnny Cash's BIG RIVER)

KEY: E

INTRO:
 N/C         G          E
E--------------------------
B--------------------------
G--------------------------
D--------------------------
A-2-2-0--------------------  PLAY TWICE
E--------2-0--3-0-3-0-3-0--

E
Well I heard you sing Big River and it chilled me to the bone
                                F#                 B7
I heard you moan Hey Porter and Leave Your Guns At Home
E                            A 
Five Feet High And Rising, c'mon it's Pickin' Time
E                    B7                  E
You walked tall each time you walked the line

Each night I played the boogie from the Home of the Blues
I Still Miss Someone but I'll Rock and Roll with you
Give My Love to Rose while I'm busy Doin' Time
You walked tall each time you walked the line

SOLO:
 E
E------7-9-7-10-7------7-9-7-10-
B-8/9--------------8/9----------
G-------------------------------  PLAY TWICE
D-------------------------------
A-------------------------------
E-------------------------------
           A
E-7-----0------5--------5----------10-----12-10-12-10--
B----9-------5---5----5---5-----11----11---------------
G----------6--------6--------10------------------------
D------------------------------------------------------
A------------------------------------------------------
E------------------------------------------------------
  E
E-------------------------------------
B-------------------------------------
G-------------------------------------
D-0h2--2-----2---2------2---2------2--
A--------------2---2------2---2-------
E---------0----------0----------0-----
      B7                                  E
E-------------------------------------------
B-------------------------------------------
G--------------2-----------2----------------
D--------1-----0-----1-----0----------------
A-0-1-2-----------2-----------0h2-2--1------
E-----------2-----------2---------------2b0-

Now Daddy Sang the Bass pickin' on a Flat-top Box
Blistered from the Cocaine Blues and Gettin' Rhythm hot
If I can't hear the workin' man I'll Cry, Cry, Cry
You walked tall each time you walked the line 

SOLO:
  E
E-------------
B-------------
G-------------
D-------------
A-------------
E-0--2--3--4--  PLAY 4 TIMES
          A
E-------------
B-------------
G-------------
D-------------
A-0--2--3--4--  PLAY 4 TIMES
E-------------
           E
E-------------
B-------------
G-------------
D-------------
A-------------
E-0--2--3--4--  PLAY 3 TIMES
       B7        E
E-------------------
B-------------------
G-------------------
D------2------------
A-2-4-----3-2-------
E-------------2b-0--

Now many years have passed since we first hit the tube
And nothing since has gotten me like Folsom Prison Blues
W.S. gave us the back-beat while I guitar beat in time
You walked tall each time you walked the line 

Yeah you walked tall each time you walked the line 

OUTRO:
  E     B7      E
E------------------
B------------------
G------------------
D-----1-1----------
A-2-2-----2--------
E-------------2b0-- 


Bob Wootton Tabs & Chords



Bob Wootton Tabs, Tablatures, Chords, Lyrics

Buy Bob Wootton CD
Bob Wootton
Buy Bob Wootton CD

  1. Bob Wootton - Mad Dog 20/20 Vision Chords
  2. Bob Wootton - My Baby Walks All Over Me Chords
  3. Bob Wootton - You Walked Tall Chords



cowboylyrics.com
All lyrics are property and copyright of their owners. All lyrics provided for educational purposes only.